Song name
# A B C D E F G H I J K L M N O P Q R S T U V W X Y Z

Flux Pavillion - Superbad tab

-------------------------------------------------------------------------------
                             Flux Pavillion - Superbad
-------------------------------------------------------------------------------

Tuning:Standard

e|---------------------------------------------------------------------------|
B|---------------------------------------------------------------------------|
G|---------0-----------------------------------------------------------------|
D|--10-12--------------------------------------------------------------------|
A|----------------1010-12------88-10-----------------------------------------|
E|---------------------------------------88-10-------------------------------|
Tap to rate this tab
# A B C D E F G H I J K L M N O P Q R S T U V W X Y Z