Song name
# A B C D E F G H I J K L M N O P Q R S T U V W X Y Z

Fly Leaf - There For You tab

Revised Tabulature by: Nate(nate2372@yahoo.com)

Intro/Verse

e|----------------------------------------|
B|---5-----5--3-----3--8-----8--7-----7---|
G|-----0--------0--------0--------0-------|
D|----------------------------------------|
A|---3---3-3--2---2-2--7---7-7--5---5-5---|
D|----------------------------------------|

e|---------------------------------|
B|---5-----5--3--8--7-----7--8\7---|
G|-----0--------------0------------|   (x2)
D|---------------------------------|
A|---3---3-3--2--7--5---5-5--------|
D|---------------------------------|

Chorus

e|---------------------------------------------------------------|
B|---------------------------------------------------------------|
G|--5~~-------------4~----4~----------------4~----4~----------4~-|
D|--3~~-------5--4--4~----4~----5--4--5--4--4~----4~----5--4--4~-|
A|--3~~-------5--4--2~----2~----5--4--5--4--2~----2~----5--4--2~-|
D|------------5--4--------------5--4--5--4--------------5--4-----|
           "i wanna be....someone......runs deeper......i wanna be.."

Verse

Chorus

e|----------------------------|
B|----------------------------|
G|-4-4-4-4-4-4----------------| (x3)
D|-4-4-4-4-4-4--5-5-5-5-5-5---|
A|-2-2-2-2-2-2--5-5-5-5-5-5---|
D|--------------5-5-5-5-5-5---|

Chorus x2

Tap to rate this tab
 
# A B C D E F G H I J K L M N O P Q R S T U V W X Y Z