Song name
# A B C D E F G H I J K L M N O P Q R S T U V W X Y Z

Fly Leaf - Im So Sick tab

EHH I think im right
have fun and keep rocking

Tuning: Drop D

Intro:
-------------------------------------------------|
-------------------------------------------------|
----5-----5--5-/-7--7--7777--7777----5-----------|
----3-----0--0---0--0--6666--5555---03-----------|
----3----(0)(0)-(0)(0)-6666--5555---03-----------|
----3----(0)(0)-(0)(0)-6666--5555---03-----------|

Verse:
-------------------------------------------------|
-------------------------------------------------|
---5---5--5-/-7--7--7777--7777-------------------|
--03---0--0---0--0--6666--5555-------------------|
--03--(0)(0)-(0)(0)-6666--5555-------------------|
--03--(0)(0)-(0)(0)-6666--5555-------------------|

Chorus:
---(9)-------------|
----10--8----------|
----10--7----------|
----8---5----------|
----8---5----------|
----8---5----------|
Tap to rate this tab
# A B C D E F G H I J K L M N O P Q R S T U V W X Y Z