Song name
# A B C D E F G H I J K L M N O P Q R S T U V W X Y Z

Fly My Pretties - Fly My Pretties chords

Help us improve GuitareTab! Take a short survey!
Highlighted       Show chord diagrams
Song:		Fly My Pretties
Artist:		Fly My Pretties
Album:		Live at Bats
tabbed by James van Rooyen

The verse will use the main riff throughout, which on guitar I like to
combine with the bass line (by using my ring finger for the Riff 1 note, 
while my index does the bass line). 

Chords:
   D   A   Asus2   E
E--2---0-----0-----0----------------------------------------------|
B--3---2-----0-----0----------------------------------------------|
G--2---2-----2-----1----------------------------------------------|
D--0---2-----2-----2----------------------------------------------|
A------0-----0-----2----------------------------------------------|
E------------------0----------------------------------------------|

Riffs:
      Riff 1                Bass line
E----------------------------------------------------------------|
B----------------------------------------------------------------|
G-2-x2-x2-x2-x2-2------------------------------------------------|
D----------------------------------------------------------------|
A----------------------2---0-2---0-2---0-2-----------------------|
E------------------------2-----2-----2---------------------------|


Intro
Riff 1

Riff 1
Well Wellingtons a small town
But it packs a lot of punch
Theres talent oozing from the walls
They eat ideas for lunch
                                               Asus2
It can get a little claustrophobic even if you try
E                Riff1
Fly my pretties, fly


Well I reckon this towns brilliant 
In lots of different ways
But it doesnt have the money or the glamour of LA
Im sure youll make it there,
                       Asus2
The stars are shining bright
E                      Asus2
If you have to go then fly

Chorus:
D    A
Fly away
E                          Asus2
As long you come back some day
D    A
Fly away
E                          Asus2
Hope to see you round some day

Riff 1
Well Ive lived here my whole life
And sure the livings sweet
But what I wants the whole world just to listen to my beats
                                          Asus2
The only way to do this is travel far and wide
E                         Asus2
So if you have to go then fly

Riff 1
They say that theres a brain drain
And I reckon that its true
Our best are cruising off shore just to make a buck or two
                                                    Asus2
It seems a little sad that we cant do it all right here
    E                      Asus2
But if you have to go take care

Chorus 

[Little guitar bit]

Chorus
X2

End Riff
E-------------------------|
B-------------------------|
G-------------------------|
D--2-2p0-----2p0----------|
A--------2p0-----2p0-2~---|
E-------------------------|
Related for Fly My Pretties chords