Song name
# A B C D E F G H I J K L M N O P Q R S T U V W X Y Z

Fly My Pretties - Singing In My Soul tab

My first contribution to Ultimate guitar since I started, after milking it for a few
years, this solo sounds beautiful when you get the timing down along with the chords.
that's the problem with this tab sorry, the spacing doesn't indicate the timing very 
well cause after 2 hours I'd had enough
Not perfect but will certainly put you on the right track.
Keep at it! and a great tip is listening to the solo in slow motion whilst playing.

e------------------------------------------------------------|
B--3/5-3--------------------3-3-1h3-1--3/5-3-1/3-1-3-5/3/1---|
G--------5-2h5--2-5p2--------------------------------------2-|
D------------------------------------------------------------|
A------------------------------------------------------------|
E------------------------------------------------------------|

e------------------------------------------------------|
B---------------------------------13-10-11p10--11------|
G-10-12-10-12/14-12-10--14-12-10-------------------10--|
D------------------------------------------------------|
A------------------------------------------------------|
E------------------------------------------------------|

e------------------------------------------------------|
B--15p13-----13--10-11p10--11p10-11-13-11-10-10-11-10--|
G---------15-------------------------------------------|
D------------------------------------------------------|
A------------------------------------------------------|
E------------------------------------------------------|

e----------------------------------------------------------------|
B--6/8-8---------------------------------------------------------|
G-----------10--10/12-10-10/12--10------14-12-12-10-10/12-10-----|
D----------------------------------10------------------------10--|
A----------------------------------------------------------------|
E----------------------------------------------------------------|

e-----------------------------------------------------------------|
B-----------------------------------------------------------------|
G--12/14--12p10-12-10-12-10------12/14--12p10--12-10-12-10-9------|
D-----------------------------10----------------------------------|
A-----------------------------------------------------------------|
E-----------------------------------------------------------------|

e------------------------------13~ --10-12-8-10-6-8-5-6-3-5-3-1--|
B-------------15-13-17p13/10-------------------------------------|
G--10-12-14------------------------------------------------------|
D----------------------------------------------------------------|
A----------------------------------------------------------------|
E----------------------------------------------------------------|

e------------8----------------3-3-1-----|
B--3-6-6/8-8----3-1-1h3-1--1--------5---|
G---------------------------------------|
D---------------------------------------|
A---------------------------------------|
E---------------------------------------|
Tap to rate this tab
# A B C D E F G H I J K L M N O P Q R S T U V W X Y Z