Song name
# A B C D E F G H I J K L M N O P Q R S T U V W X Y Z

Fly Project - Goodbye tab

http://www.youtube.com/watch?v=JL0q8o-IAc8

Fly Project Guitar Solo. No Capo. See link above. ^^



--13-13--11-11-13------13-11-11-13------13-11-11-13-------------------------|
-------------------13---------------13----------------13-13-13-11-9-8-6-----|
----------------------------------------------------------------------------|
----------------------------------------------------------------------------|
----------------------------------------------------------------------------|
----------------------------------------------------------------------------|



--13-13--11-11-13------13-11-11-13-----11-11-----------16-15-13-------------|
-------------------13---------------13-------13-13-13-----------------------|
----------------------------------------------------------------------------|
----------------------------------------------------------------------------|
----------------------------------------------------------------------------|
----------------------------------------------------------------------------|
Tap to rate this tab
 
# A B C D E F G H I J K L M N O P Q R S T U V W X Y Z