Song name
# A B C D E F G H I J K L M N O P Q R S T U V W X Y Z

Fly Project - Musica tab

Fly Project Tab
Standard Tuning
Difficult: novice
By Walter Leone


E------------------------------------------------|
B--12/13-13-12-12-12/13------12/13--12-12-12/13--|
G------------------------------------------------|
D------------------------------------------------|
A------------------------------------------------|
E------------------------------------------------|

E--------------------------------15-13-12--------|
B--12/13--12-12-12/13----------------------13----|
G----------------------12-12-12------------------|
D------------------------------------------------|
A------------------------------------------------|
E------------------------------------------------|

E------------------------------------------------|
B--12/13-13-12-12-12/13------12/13--12-12-12/13--|
G------------------------------------------------|
D------------------------------------------------|
A------------------------------------------------|
E------------------------------------------------|

E------------------------------------------------|
B--12/13--12-12-12/13----------------------------|
G----------------------10------------------------|
D------------------------------------------------|
A------------------------------------------------|
E------------------------------------------------|


    Am            F           C           G
E-----------------------------------------3-1-0--|
B----1-1h3p1-----1-1h3p1-----1-1h3p1-----3-------|
G---2-----------2-----------0-----------0--------|
D--2-----------3-----------2-----------0---------|
A-0-----------3-----------3----------------------|
E-------------------------------------3----------|

     Am           F           Em      Am
E----------------------------------------|
B----1-1h3p1-----1-1h3p1-----0-0h1p1-----|
G---2-----------2-----------0---------2--|
D--2-----------3-----------2-------------|
A-0-----------3-----------------------0--|
E-------------------------0--------------|
Tap to rate this tab
# A B C D E F G H I J K L M N O P Q R S T U V W X Y Z