Flybaits - Mengapa Perpisahan Yang Kau Pinta tab

------
INTRO
------

     Dm                B#                Dm                B#          Dm
e|-----1-0---1-0---1-----1-0---1-0---1-----1-0---1-0---1-----1-0---1-0---------------------------|
B|-----------------------------------------------------------------------3-----------------------|
G|---2-----2-----2-----3-----3-----3-----2-----2-----2-----3-----3-----2-------------------------|
D|-----------------------------------------------------------------------------------------------|
A|-----------------------------------------------------------------------------------------------|
E|-----------------------------------------------------------------------------------------------|

Or

e|-----------------------------------------------------------------------------------------------|
B|-----6-5---6-5---6-----------6-5---6-----6-5---6-5---6-----6--5--6-5---------------------------|
G|-----------------------------------------------------------------------7-----------------------|
D|---7-----7-----7-----8-----8-----8-----7-----7-----7-----8-----8-----7-------------------------|
A|-----------------------------------------------------------------------------------------------|
E|-----------------------------------------------------------------------------------------------|



  Dm           C
Seketika itu sepi mencuit hati
  F                 B#
Hanya suara hujan seakan menyanyi
  Gm
Mendendangkan lagu syahdu
  A
Ketika ku terpegun
  Dm
Merenung jauh gambarmu sayangku


  Dm            C
Terkilan rasa bila kata-katamu
  F                   B#
Kau ucapkan padaku, membuat ku terpaku
  Gm                     A
Bersama-sama suratmu, setelah ku baca kini
  Dm                     D
Seolah ku berada dalam mimpi


--------
CHORUS
--------

              Gm   
Titisan demi titisan
C                    F
Airmata ku jatuh berlinangan
B#                           G
Kugenggam gambarmu dalam pelukan mesra
 A                            Dm
Tak mungkin dapat ku melupakanmu...
 D
Sayang...
            Gm
Di dalam dunia ini
       A              Dm     C          B#
Tak mungkin dapat ku cari pengganti dirimu
       Gm         Bm                  A
Oh... mengapa perpisahan yang kau pinta



  Dm                  C             
Janganlah kau lupa suatu ketika dulu
      F                   B#            
Kita pernah bersama berjanji dan bercinta
      Gm                      A  
Kini nyata kau mungkiri setelah janjimu itu
     Dm
Di manakah letak kejujuranmu

------------
GUITAR SOLO
------------



e|-----------------------------------------------------------------------------------------------|
B|--------5-5-6-----------5h6-5------------------------------------------------------------------|
G|-----------5----------------10-10---8--7-------------------------------------------------------|
D|---7-------------------------------------------------------------------------------------------|
A|-----------------------------------------------------------------------------------------------|
E|-----------------------------------------------------------------------------------------------|



e|-----------------------------------------------------------------------------------------------|
B|---6p5-6---------------------------------------------------------------------------------------|
G|-----------------------------------------------------------------------------------------------|
D|---------10-10--8-7---7h8/10--8-8p7-7/10--8/5~-------------------------------------------------|
A|-----------------------------------------------------------------------------------------------|
E|-----------------------------------------------------------------------------------------------|


e|-----------------------------------------------------------------------------------------------|
B|-----------------------------------------------------------------------------------------------|
G|-----------------------------------------------------------------------------------------------|
D|---5-7-8---7-8-7/10--8/5~----------------------------------------------------------------------|
A|-----------------------------------------------------------------------------------------------|
E|-----------------------------------------------------------------------------------------------|

                                 D                                            
e|-----------------------------------------------------------------------------------------------|
B|-----------------------------------------------------------------------------------------------|
G|-----------------------------------------------------------------------------------------------|
D|---4-5-7---8-7~-----5-4-5-7~-------------------------------------------------------------------|
A|-----------------------------------------------------------------------------------------------|
E|-----------------------------------------------------------------------------------------------|




-----------
PRE-CHORUS
-----------
               Gm
Titisan demi titisan
C                    F
Airmata ku jatuh berlinangan
B#                           G
Kugenggam gambarmu dalam pelukan mesra
 A                            Dm
Tak mungkin dapat ku melupakanmu...
 D
Sayang...
            Gm
Di dalam dunia ini
       A              Dm     C          B#
Tak mungkin dapat ku cari pengganti dirimu
       Gm         Bm                  A
Oh... mengapa perpisahan yang kau pinta

-----
OUTRO
-----

           Dm          Bm                         Dm   Bm    Dm
  Daaaaaariku...                         Daaaaaariku...
e|-----1-0---1-0---1-----1-0---1-0---1-----1-0---0-1-0-------------------------------------------|
B|----------------------------------------------------------2------------------------------------|
G|---2-----2-----2-----3-----3-----3-----2-----2--------------3----------------------------------|
D|-----------------------------------------------------------------------------------------------|
A|-----------------------------------------------------------------------------------------------|
E|-----------------------------------------------------------------------------------------------|


Or

           Dm          Bm                         Dm   Bm    Dm
  Daaaaaariku...                         Daaaaaariku...
e|-----6-5---6-5---6-----6-5---6-5---6-----5-6---5-6-5-------------------------------------------|
B|----------------------------------------------------------7------------------------------------|
G|---7-----7-----7-----8-----8-----8-----7-----7--------------8----------------------------------|
D|-----------------------------------------------------------------------------------------------|
A|-----------------------------------------------------------------------------------------------|
E|-----------------------------------------------------------------------------------------------|

Tab yg tak seberape walaupon kpale agak penin buat bende alah ni @_@
saje bosan2 takde keje nk buat, share2 je ah ;3, saya budak baru blaja ;D 
-MaL8D- 14/04/11 2:37PM


Tap to rate this tab
 
# A B C D E F G H I J K L M N O P Q R S T U V W X Y Z