Song name
# A B C D E F G H I J K L M N O P Q R S T U V W X Y Z

Flybanger - Bleak tab

Help us improve GuitareTab! Take a short survey!
Bleak (demo) by Flybanger
Guitarist: Brian Fratesi
Album: Knott Skull
Dif.: 7
Tabbed by TWIGGy5

NOTE: This is not technically a demo but kind of is. Its the secret song off 
the album knott skull. Thats back when they were known as JAR.
NOTE: Tune to Drop D (D A D G B E)

Intro
D|-----10----8----------7----5-----
D|-/8------8---8--\5--5---5----5--\

Intro (cont.)
D|--------3----1--------0---0-----|
A|--------------------0---0---0---|
D|-\1--1----1----1--0-------------|

Intro P2/Verse
D|-------10----8----------7----5-----
D|-/8--8-----8---8--\5--5---5----5--\

Intro P@/Verse(cont.)
D|--------3----1--------0---0-----|
A|--------------------0---0---0---|
D|-\1--1----1----1--0-------------|

Chorus 1 (So bleak..)
D|-/5-5-5--5--5-5-5--5--5-5--8-8-8--8--8-8-8--8--8-8-
A|-/5-5-5--5--5-5-5--5--5-5--8-8-8--8--8-8-8--8--8-8-
D|-/5-5-5--5--5-5-5--5--5-5--8-8-8--8--8-8-8--8--8-8-
     PM--|   PM----|   PM---------|   PM-----|  PM--|

Chorus 1 (cont.)
B|--------------------------------4---4---|
G|--------------------------------3-3---3-|
D|-3-3-3--3--3-3-3--3--3-3------1---------|
A|-3-3-3--3--3-3-3--3--3-3----1-----------|
D|-3-3-3--3--3-3-3--3--3-3--1-------------|
  PM----|   PM-----|  PM--|

Chorus 2
D|-/5-5-5--5--5-5-5--5--5-5--8-8-8--8--8-8-8--8--8-8-
A|-/5-5-5--5--5-5-5--5--5-5--8-8-8--8--8-8-8--8--8-8-
D|-/5-5-5--5--5-5-5--5--5-5--8-8-8--8--8-8-8--8--8-8-
     PM--|   PM----|   PM---------|   PM-----|  PM--|

Chorus 2 (cont.)
B|--------------------------------4---4---|
G|--------------------------------3-----3-|
D|-3-3-3--3--3-3-3--3--3-3------1---------|
A|-3-3-3--3--3-3-3--3--3-3----1-----------|
D|-3-3-3--3--3-3-3--3--3-3--1-------------|
  PM----|   PM-----|  PM--|

Chorus 2 (cont.)
D|-/5-5-5--5--5-5-5--5--5-5--8-8-8--8--8-8-8--8--8-8-
A|-/5-5-5--5--5-5-5--5--5-5--8-8-8--8--8-8-8--8--8-8-
D|-/5-5-5--5--5-5-5--5--5-5--8-8-8--8--8-8-8--8--8-8-
     PM--|   PM----|   PM---------|   PM-----|  PM--|

Chorus 2 (cont.)
B|----------------------------------4---4---|
G|------------------------------------3---3-|
D|-3-3-3--3--3-3-3--3--3-3------1-----------|
A|-3-3-3--3--3-3-3--3--3-3----1---1---------|
D|-3-3-3--3--3-3-3--3--3-3--1---------------|
  PM----|   PM-----|  PM--|

Bridge (I cant get the rhythm down so Im just gonna put the chords. OK. You can figure out the rhythm.)
B|-6----4----------|-%-|-%-|-6----4-----4--|
G|-5----3----------|-%-|-%-|-5----3--------|
D|-3----1----------|-%-|-%-|-3----1--------|
A|-3----1----X--XX-|-%-|-%-|-3----1--------|
D|-3----1----X--XX-|-%-|-%-|-3----1--------|

Interlude
D|------------------------3-----5-------|
A|---3-5^--(5)^--(5)----3-----5------3--|
D|-0------------------3-----5------3----|
       ^ bend  step up then back down and back up to bracketed 5

Chorus 3
D|-/5-5-5--5--5-5-5--5--5-5--8-8-8--8--8-8-8--8--8-8-
A|-/5-5-5--5--5-5-5--5--5-5--8-8-8--8--8-8-8--8--8-8-
D|-/5-5-5--5--5-5-5--5--5-5--8-8-8--8--8-8-8--8--8-8-
     PM--|   PM----|   PM---------|   PM-----|  PM--|

Chorus 3 (cont.)
D|-3-3-3--3--3-3-3--3--3-3------1---1---1---|
A|-3-3-3--3--3-3-3--3--3-3----1---1---1-----|
D|-3-3-3--3--3-3-3--3--3-3--1---------------|
  PM----|   PM-----|  PM--|

Chorus 3 (cont.)
D|-/5-5-5--5--5-5-5--5--5-5--8-8-8--8--8-8-8--8--8-8-
A|-/5-5-5--5--5-5-5--5--5-5--8-8-8--8--8-8-8--8--8-8-
D|-/5-5-5--5--5-5-5--5--5-5--8-8-8--8--8-8-8--8--8-8-
     PM--|   PM----|   PM---------|   PM-----|  PM--|

Chorus 3 (cont.)
B|----------------------------------4-------|
G|------------------------------------3-----|
D|-3-3-3--3--3-3-3--3--3-3------1-------1---|
A|-3-3-3--3--3-3-3--3--3-3----1---1---------|
D|-3-3-3--3--3-3-3--3--3-3--1---------------|
  PM----|   PM-----|  PM--|

Outro (I cant get the rhythm down so Im just gonna put the chords. OK. You can figure out the rhythm.)
B|-6----4----------|-%-|-%-|-6------------3------|
G|-5----3----------|-%-|-%-|-5--------------3----|
D|-3----1----------|-%-|-%-|-3--------1-------1--|
A|-3----1----X--XX-|-%-|-%-|-3------1---1--------|
D|-3----1----X--XX-|-%-|-%-|-3----1--------------|

Outro P2 (I cant get the rhythm down so Im just gonna put the chords. OK. You can figure out the rhythm.)
B|-6----4----|
G|-5----3----|
D|-3----1----|
A|-3----1----| 4x
D|-3----1----|

End
D|--/8~~~~~--------------------------|
 (LOW D)

Song Structure: -
Anytime. Yeah giver.
Intro
Intro P2
Verse (Whos out there)
Chorus 1
Verse (Whos in here..)
Chorus 2
Bridge (Long way..)
Interlude
Verse (Now its started)
Chorus 3
Outro
Outro P2
End
Oh god

Alright there you go. Sorry I cant put the 
rhythm for the outro and the bridge its just 
Im really lazy and I know youre smart. OK!! 
Woo hoo! Have fun with this song. 
If you have any comments, corrections, suggestions or even dare I say it 
requests email me at toxic345x@yahoo.ca
Related for Bleak tab