Song name
# A B C D E F G H I J K L M N O P Q R S T U V W X Y Z

Flying Blind - Running tab

D A D C B E
TAB BY UNKNOWN
RUNNING TELL ME WHAT U THINK
INTRO
2X
12-12-12-12-9-9-9-9---7-7-7-7-5-5-5-5-5-
12-12-12-12-9-9-9-9---7-7-7-7-5-5-5-5-5-
12-12-12-14-9-9-9-11--7-7-7-7-5-5-5-5-7-
----------------------------------------
----------------------------------------
----------------------------------------
                      SECOND TIME ONLY
VERSE
3X
12-12-12-12-9-9-9-9--
12-12-12-12-9-9-9-9--
12-12-12-14-9-9-9-11-
---------------------
---------------------
---------------------
COURSE
12-12-12-12-9-9-9-9-7-7-7-7-5-5-5-5-
12-12-12-12-9-9-9-9-7-7-7-7-5-5-5-5-
12-12-12-12-9-9-9-9-7-7-7-7-5-5-5-5-
------------------------------------
------------------------------------
------------------------------------
BACK TO FIRST PART OF INTRO
Tap to rate this tab
# A B C D E F G H I J K L M N O P Q R S T U V W X Y Z