Guitaretab - guitar tabs
Song name
# A B C D E F G H I J K L M N O P Q R S T U V W X Y Z

Flyleaf - There For You Live tab

Here are the chords to There for You live version. The live version is differnt from the 
so just be aware of that. I tried my best but I don't know if it is 100% correct. 
a vid of me playing it: http://www.youtube.com/watch?v=WG277U15A28
Questions/comments: sportsfr3ak549@yahoo.com

Chords:
C2: x32033
G: 320033
Dsus4/F#: 200233
Am: x02210 pull off the B string first fret
Dsus2/F#: 200230


Intro/Verse:
e|-----------------------------------------------------------------------|
b|--5----5-3-----3-8-----8--7------7-------------------------------------|
g|----0------0-------0---------0-----------------------------------------|
d|-----------------------------------------------------------------------|
a|--3--3---2---2---7---5----5-----5--------------------------------------|
E|-----------------------------------------------------------------------|

--------------------------------------------|
--5------5--3-------3---7------7-8p7-----7--|
-----0---------0-----------0---------0------|
--------------------------------------------|
--3----3----2-----2-----5----5---------5----|
--------------------------------------------|
[ Tab from: http://www.guitaretab.com/f/flyleaf/101341.html ]
Sometimes I'm a selfish fake
You're always a true friend
I don't deserve you
'Cause I'm not there for you
Please forgive me again

Chorus

C2    G      Dsus4/F#      Am
   I wanna be there for you
C2   G        Dsus4/F#     Am
   Someone you can come to
C2   G         Dsus4/F#   Am
    Runs deeper than my bones
  C2  G       Dsus4/F#    Am   Em7
   Dsus2/F#
   I wanna be there for you

Verse 2:(same as verse 1)
Swirling shades of blue
Slow dancing in your eyes
Sun kisses the earth
And I hush my urge to cry

Chorus( same as first chorus, but end on C2)
I wanna be there for you
Someone you can come to
Runs deeper than my bones
I wanna be there for you


C2                          Dsus4/F#
'Cause I hear the whispered words
           G        Dsus4/F# C2
In your masterpiece beautiful
     G           Dsus4/F#    Am     Em7
You speak the unspeakable through
C2 G   Dsus4/F#   Am   Em7       C2
I lo------ve      you too

C2   G       Dsus4/F#     Am    Em7
  I wanna be there for you
      C2 G          Dsus4/F#    Am     Em7
  and be Someone you can come to
       C2  G           Dsus4/F#  Am
  The love runs deeper than my  bones
 C2  G       Dsus4/F#    Am    Em7
 Dsus2/F#
  I wanna be there for you
Related for There For You Live tab
×
There For You Live