Song name
# A B C D E F G H I J K L M N O P Q R S T U V W X Y Z

Flyleaf - Justice And Mercy tab

Flyleaf
Justice and Mercy
Much Like Falling-EP

I know they play in drop D but this particular song happens to be in
Drop Db
(C#-G#-C#-F#-A#-D#)

Updated 3/11/08

Intro Bass
(0:02)Guitar 1/Rhythm Figure A
e|----------------------|
B|------3-----3------3--|
G|--0-2---0-2----0-2----|
D|----------------------|X2
A|----------------------|
E|----------------------|

(0:09)Both Guitars(Palm Muted)Verse 1/Rythm Figure B
e|---------------------------------------------------|
B|---------------------------------------------------|
G|---------------------------------------------------|
D|-0--3-2-0-1-1-1-1-----12--10--7--8--10-12-12-12----|X2
A|-0--3-2-0-1-1-1-1-----12--10--7--8--10-12-12-12----|
E|-0--3-2-0-1-1-1-1-----12--10--7--8--10-12-12-12----|

Pre-Chorus  Guitar 1

e|--10-10-10-10--13-13-13-13--15-15-15-15--17-17-17-17---|
B|--10-10-10-10--13-13-13-13--15-15-15-15--15-15-15-15---|
G|-------------------------------------------------------|
D|-------------------------------------------------------|
A|-------------------------------------------------------|
E|-------------------------------------------------------|

Pre-Chorus Guitar 2(palm muted)
e|---------------------------------------------------------------|
B|---------------------------------------------------------------|
G|---------------------------------------------------------------|
D|--0--3-2-0--1-1-1-1---0--3-2-0--1-1-1-1------------------------|
A|--0--3-2-0--1-1-1-1---0--3-2-0--1-1-1-1------------------------|X2
E|--0--3-2-0--1-1-1-1---0--3-2-0--1-1-1-1------------------------|



(0:25)Pre-Chorus 2/Guitar 1
e|--5-5-5-5---8-8-8-8-8-8--10-10-10-10-10-10-10-10-----|
B|-----------------------------------------------------|
G|-----------------------------------------------------|
D|-----------------------------------------------------|
A|-----------------------------------------------------|
E|-----------------------------------------------------|

Pre-Chorus 2/Guitar 2
e|-----------------------------------------------------|
B|-----------------------------------------------------|
G|------3-3--5-5-5-5--------3-3--5-5-5-5-5-5-5-5-5-5-5-|
D|-1-1--x-x--x-x-x-x---1-1--x-x--x-x-x-x-x-x-x-x-x-x-x-|
A|-1-1--1-1--3-3-3-3---1-1--1-1--3-3-3-3-3-3-3-3-3-3-3-|
E|-1-1-----------------1-1-----------------------------|

Chorus: Guitar 1 plays basically same thing as Pre-chorus 1 And 2
                                       im sure you can figure it out
Chorus/Guitar 2
e|-----------------|
B|---------------3-|
G|---------------2-|
D|-0-0-0--5-3-0----|X6
A|-0-0-0--5-3-0----|
E|-0-0-0--5-3-0----|

Chorus/Guitar 2 Continued
e|---------------------|
B|---------------------|
G|------3-3-5-5-5-5----|
D|-1-1--x-x-x-x-x-x----|
A|-1-1--1-1-3-3-3-3----|X2
E|-1-1-----------------|

Both Guitars End Chorus With
e|-----------------|
B|-----------------|
G|-----------------|
D|-0~~~~~~~~~~-----|
A|-0~~~~~~~~~~-----|
E|-0~~~~~~~~~~-----|


Verse 2/Guitar 3 plays Rythm Figure A

Verse 2/Guitar 1 and 2
e|-------------------------------|
B|-------------------------------|
G|-------------------------------|
D|-0--3-2-0-1-1-1-1-1-1-1-1------|
A|-0--3-2-0-1-1-1-1-1-1-1-1------|X2
E|-0--3-2-0-1-1-1-1-1-1-1-1------|
      . . . . . . . . . . .                         

(1:00)Verse 2 continued/Both Guitars/Play Rythm Figure B here

Play Pre-Chorus 1 and 2 Again
Then play Chorus Again

Interlude(With the life on the line,Fire!!)
e|-----------------------------|
B|-----------------------------|
G|----------5-5-5-5------------|
D|-3-3-3-3--5-5-5-5--0-0-0-0---|
A|-3-3-3-3--3-3-3-3--0-0-0-0---|X3
E|-3-3-3-3-----------0-0-0-0---|

(2:02)
e|------------|
B|------------|
G|------------|
D|-3~~~~~~~~--|
A|-3~~~~~~~~--|
E|-3~~~~~~~~--|

Play the chorus again and Thats it!!!!!!!!

Short but awesome song
Tap to rate this tab
# A B C D E F G H I J K L M N O P Q R S T U V W X Y Z