Song name
# A B C D E F G H I J K L M N O P Q R S T U V W X Y Z

Flyleaf - There For You Acoustic tab

Help us improve GuitareTab! Take a short survey!
-------------------------------------------------------------------------------
			     There for you (live acoustic) - Flyleaf
------------------------------------------------------------------------------- 
All of the tabs for this song have an incorrect intro 
and just a basic set-up of chords without the subtle variations.

The intro can use the 5th fret on the B string instead of an 
open e string, but I have tabbed it the way he plays it.

This is accurate and detailed (and took a while ^_^). Enjoy.
I used this version of the song: http://www.youtube.com/watch?v=pCgemsdIFGE
Everything is fingerpicked or strummed with the hand until the end of 
the 2nd chorus,which i indicate.

please rate and/or comment. thanks!

Tabbed by:exterious
Email:exterious@gmail.com

Tuning:standard

Intro(x1)/verse(x2)
e|0------0-------------------0---------0-------------------------------------|
B|----------3------3/-8---------7--------------------------------------------|
G|---0---------0---------0---------0-----------------------------------------|
D|---------------------------------------------------------------------------|
A|3----3----2----2/---7----7----5----5---------------------------------------|
E|---------------------------------------------------------------------------|

e|0------0-------------------0----------0------------------------------------|
B|----------3------3--7---------8\7------------------------------------------|
G|---0---------0---------0----------0----------------------------------------|
D|---------------------------------------------------------------------------|
A|3----3----2----2----5----5----------5--------------------------------------|
E|---------------------------------------------------------------------------|

Chorus
"I wanna be there for you..."
e|3--3-3-3-3--3-3-3-3--3-3-3-3--3-3-3-0---0-0-0-0---0-0-0--------------------|
B|3--3-3-3-3--3-3-3-3--3-3-3-3--3-3-3-0h1-1-1-1-1p0-0-0-0--------------------|
G|0--0-0-0-0--0-0-0-0--0-0-0-2--2-2-2-2---2-2-2-2---2-2-2--------------------|
D|2--2-2-2-2--2-2-2-0--0-0-0-0--0-0-0-2---2-2-2-2---2-2-2--------------------| 
A|3--3-3-3-3--3-3-3-2--2-2-2-0--0-0-0-0---0-0-0-0---0-0-0--------------------|
E|x--x-x-x-x--x-x-x-3--3-3-3-2--2-2-2-x---x-x-x-x---x-x-x--------------------|
the next 3 times
he plays these chords
slight variation below

"Be someone you can come to..."
e|3--3-3-3-3--3-3-3-3--3-3-3-3--3-3-3-0---0-0-0-0---0-0-0--------------------|
B|3--3-3-3-3--3-3-3-3--3-3-3-3--3-3-3-0h1-1-1-1-1p0-0-0-0--------------------|
G|0--0-0-0-0--0-0-0-0--0-0-0-2--2-2-2-2---2-2-2-2---2-2-2--------------------| play bar 3 times
D|2--2-2-2----2-2-2-0--0-0-0-0--0-0-0-2---2-2-2-2---2-2-2--------------------|
A|3--3-3-3----3-3-3-2--2-2-2-0--0-0-0-0---0-0-0-0---0-0-0--------------------|
E|x--x-x-x----x-x-x-3--3-3-3-2--2-2-2-x---x-x-x-x---x-x-x--------------------|

e|3--3-3-3-3--3-3-3-------3--------------------------------------------------|
B|3--3-3-3-3--3-3-3-------3--------------------------------------------------|
G|0--0-0-0-0--0-0-0----2--2--------------------------------------------------|
D|2--2-2-2----2-2-2----0-----------------------------------------------------|
A|2--2-2-2----2-2-2----0-----------------------------------------------------|
E|0--0-0-0----0-0-0-2--------------------------------------------------------|

Verse(x2)
"Swirling shades of blue..."
e|0------0-------------------0---------0-------------------------------------|
B|----------3------3/-8---------7--------------------------------------------|
G|---0---------0---------0---------0-----------------------------------------|
D|---------------------------------------------------------------------------|
A|3----3----2----2/---7----7----5----5---------------------------------------|
E|---------------------------------------------------------------------------|

e|0------0-------------------0----------0------------------------------------|
B|----------3------3--7---------8\7------------------------------------------|
G|---0---------0---------0----------0----------------------------------------|
D|---------------------------------------------------------------------------|
A|3----3----2----2----5----5----------5--------------------------------------|
E|---------------------------------------------------------------------------|

Chorus
"I wanna be there for you..."
e|3--3-3-3-3--3-3-3-3--3-3-3-3--3-3-3-0---0-0-0-0---0-0-0--------------------|
B|3--3-3-3-3--3-3-3-3--3-3-3-3--3-3-3-0h1-1-1-1-1p0-0-0-0--------------------|
G|0--0-0-0-0--0-0-0-0--0-0-0-2--2-2-2-2---2-2-2-2---2-2-2--------------------|
D|2--2-2-2-2--2-2-2-0--0-0-0-0--0-0-0-2---2-2-2-2---2-2-2--------------------|
A|3--3-3-3-3--3-3-3-2--2-2-2-0--0-0-0-0---0-0-0-0---0-0-0--------------------|
E|x--x-x-x-x--x-x-x-3--3-3-3-2--2-2-2-x---x-x-x-x---x-x-x--------------------|

e|3--3-3-3-3--3-3-3-3--3-3-3-3--3-3-3-0---0-0-0-0---0-0-0--------------------|
B|3--3-3-3-3--3-3-3-3--3-3-3-3--3-3-3-0h1-1-1-1-1p0-0-0-0--------------------|
G|0--0-0-0-0--0-0-0-0--0-0-0-2--2-2-2-2---2-2-2-2---2-2-2--------------------| play bar 2 times
D|2--2-2-2----2-2-2-0--0-0-0-0--0-0-0-2---2-2-2-2---2-2-2--------------------|
A|3--3-3-3----3-3-3-2--2-2-2-0--0-0-0-0---0-0-0-0---0-0-0--------------------|
E|x--x-x-x----x-x-x-3--3-3-3-2--2-2-2-x---x-x-x-x---x-x-x--------------------|

"And I, I hear the whispered words..."
e|3--------3--3-3-3-3--3-3-3-3--3-3-3-3--3-3-3-3--3-3-3-3--3-3-3-3--3-3-3----|grabs pick from mouth
B|3--------3--3-3-3-3--3-3-3-3--3-3-3-3--3-3-3-3--3-3-3-3--3-3-3-3--3-3-3----|after first strum
G|0--------0--0-0-0-2--2-2-2-0--0-0-0-2--2-2-2-2--2-2-2-0--0-0-0-0--0-0-0----|
D|2--------2--2-2-2-0--0-0-0-0--0-0-0-0--0-0-0-0--0-0-0-0--0-0-0-0--0-0-0----|
A|3--------3--3-3-3-2--2-2-2-3--3-3-3-0--0-0-0-0--0-0-0-x--x-x-x-x--x-x-x----|
E|x--------x--x-x-x-x--x-x-x-x--x-x-x-2--2-2-2-2--2-2-2-3--3-3-3-2--2-2-2----|
 
                  "You speak the unspeakable through..."
e|3--3-3-3-3--3-3-3-3--3-3-3-3--3-3-3-0---0-0-0-0---0-0-0--------------------|
B|3--3-3-3-3--3-3-3-3--3-3-3-3--3-3-3-0h1-1-1-1-1p0-0-0-0--------------------|
G|0--0-0-0-0--0-0-0-0--0-0-0-2--2-2-2-2---2-2-2-2---2-2-2--------------------|
D|0--0-0-0-0--0-0-0-0--0-0-0-0--0-0-0-2---2-2-2-2---2-2-2--------------------|
A|3--3-3-3-3--3-3-3-x--x-x-x-0--0-0-0-0---0-0-0-0---0-0-0--------------------|
E|x--x-x-x-x--x-x-x-3--3-3-3-2--2-2-2-x---x-x-x-x---x-x-x--------------------|

                      "I, love, you, too..."
e|3--3-3-3-3--3-3-3-3--3-3-3-3--3-3-3-3--3-3-3-3--3-3-3-0---0-0-0-0---0-0-0--|
B|3--3-3-3-3--3-3-3-3--3-3-3-3--3-3-3-3--3-3-3-3--3-3-3-0h1-1-1-1-1p0-0-0-0--|
G|0--0-0-0-0--0-0-0-0--0-0-0-0--0-0-0-0--0-0-0-2--2-2-2-2---2-2-2-2---2-2-2--|play bar 4 times
D|2--2-2-2-2--2-2-2-2--2-2-2-2--2-2-2-0--0-0-0-0--0-0-0-2---2-2-2-2---2-2-2--|
A|2--2-2-2-2--2-2-2-3--3-3-3-3--3-3-3-2--2-2-2-0--0-0-0-0---0-0-0-0---0-0-0--|
E|0--0-0-0-0--0-0-0-x--x-x-x-x--x-x-x-3--3-3-3-2--2-2-2-x---x-x-x-x---x-x-x--|

"And I, wanna be there for you..."
e|3--------3--3-3-3-3---3-3-3-3--3-3-3-0---0-0-0-0---0-0-0-------------------|
B|3--------3--3-3-3-3---3-3-3-3--3-3-3-0h1-1-1-1-1p0-0-0-0-------------------|
G|0--------0--0-0-0-0---0-0-0-2--2-2-2-2---2-2-2-2---2-2-2-------------------|
D|2--------2--2-2-2-0---0-0-0-0--0-0-0-2---2-2-2-2---2-2-2-------------------|
A|3--------3--3-3-3-2---2-2-2-0--0-0-0-0---0-0-0-0---0-0-0-------------------|
E|x--------x--x-x-x-3---3-3-3-2--2-2-2-x---x-x-x-x---x-x-x-------------------|

e|3--3-3-3-3--3-3-3-------3--------------------------------------------------|
B|3--3-3-3-3--3-3-3-------3--------------------------------------------------|
G|0--0-0-0-0--0-0-0----2--2--------------------------------------------------|
D|2--2-2-2-2--2-2-2----0-----------------------------------------------------|
A|2--2-2-2-2--2-2-2----0-----------------------------------------------------|
E|0--0-0-0-0--0-0-0-2--------------------------------------------------------|

| /  slide up
| \  slide down
| h  hammer-on
| p  pull-off
| ~  vibrato
| +  harmonic
| x  Mute note
============================================================================
Related for There For You Acoustic tab