Song name
# A B C D E F G H I J K L M N O P Q R S T U V W X Y Z

Flyleaf - Fullay Alive tab

song: Fully Alive
band: Flyleaf
tuning: Drop D

ok the other tab was verrrry good but it was missing some of rhythyms parts so i filled 
in credit to A Whitey2291

oh and this is also how me and my band play this song :]

Intro:
both guitars
e|------------------|
B|------------------|
G|------------------|
D|------------------| x2
A|------------------|
D|-3-0-3-5-8-5-8-10-|

e|------------------------------|
B|------------------------------|
G|------------------------------|
D|------------------------------|
A|------------------------------|
D|-3-0-3-5-8-5-8-10--8-5-8--5-3-|

e|------------------------------|
B|------------------------------|
G|------------------------------|
D|-3-0-3-5-8-5-8-10--8-5-8--5-3-| x2
A|-3-0-3-5-8-5-8-10--8-5-8--5-3-|
D|-3-0-3-5-8-5-8-10--8-5-8--5-3-|


Verse x4
both guitars
e|------------------------------------------------|
B|------------------------------------------------|
G|------------------------------------------------|
D|-3-0---5-0--------------------------------------|
A|-3-0---5-0---3-0-3-5-8-5-8-10--3-0-3-5-8-5-8-10-|
D|-3-0---5-0---3-0-3-5-8-5-8-10--3-0-3-5-8-5-8-10-|
   . .   . .   . . . . . . .  .  . . . . . . .  .


Chorus x2
guitar 1
e|---------------------------------------------------------------|
B|---------------------------------------------------------------|
G|-7-7-7-7-7-7-7-7-7-7-7-7-10-10-10------------------------------|
D|-7-7-7-7-7-7-7-7-7-7-7-7-10-10-10-5-5-5/8-8-8-8-8-8-8-0--3-3-5-|
A|-5-5-5-5-5-5-5-5-5-5-5-5--8--8--8-5-5-5/8-8-8-8-8-8-8-0--3-3-5-|
D|-0-0-0-0-0-0-0-0-0-0-0-0----------5-5-5/8-8-8-8-8-8-8-0--3-3-5-|

guitar 2
e|-------------------------------------------------------------------------|
B|-------------------------------------------------------------------------|
G|-------------------------------------------------------------------------|
D|-3-3-3-3-3-3-3-3-10-10-10-10-10-10-10-10-8-8-8-8-8-8-8-8-8-8-8-8-8-8-8-8-|
A|-3-3-3-3-3-3-3-3-10-10-10-10-10-10-10-10-8-8-8-8-8-8-8-8-8-8-8-8-8-8-8-8-|
D|-3-3-3-3-3-3-3-3-10-10-10-10-10-10-10-10-8-8-8-8-8-8-8-8-8-8-8-8-8-8-8-8-|

Verse
both guitars
e|------------------------------|
B|------------------------------|
G|------------------------------| (this part x3)
D|-3-0---5-0--------------------|
A|-3-0---5-0---3-0-3-5-8-5-8-10-|
D|-3-0---5-0---3-0-3-5-8-5-8-10-|
   . .   . .   . . . . . . .  .

e|--------------------------------------------|
B|--------------------------------------------|
G|--------------------------------------------|
D|-3-0---5-0----------------------------------|
A|-3-0---5-0---3-0-3-5-8-5-8-10---8-5-8---5-3-|
D|-3-0---5-0---3-0-3-5-8-5-8-10---8-5-8---5-3-|
   . .   . .   . . . . . . .  .   . . .   . .


Chorus x2
guitar 1
e|---------------------------------------------------------------|
B|---------------------------------------------------------------|
G|-7-7-7-7-7-7-7-7-7-7-7-7-10-10-10------------------------------|
D|-7-7-7-7-7-7-7-7-7-7-7-7-10-10-10-5-5-5/8-8-8-8-8-8-8-0--3-3-5-|
A|-5-5-5-5-5-5-5-5-5-5-5-5--8--8--8-5-5-5/8-8-8-8-8-8-8-0--3-3-5-|
D|-0-0-0-0-0-0-0-0-0-0-0-0----------5-5-5/8-8-8-8-8-8-8-0--3-3-5-|

guitar 2
e|-------------------------------------------------------------------------|
B|-------------------------------------------------------------------------|
G|-------------------------------------------------------------------------|
D|-3-3-3-3-3-3-3-3-10-10-10-10-10-10-10-10-8-8-8-8-8-8-8-8-8-8-8-8-8-8-8-8-|
A|-3-3-3-3-3-3-3-3-10-10-10-10-10-10-10-10-8-8-8-8-8-8-8-8-8-8-8-8-8-8-8-8-|
D|-3-3-3-3-3-3-3-3-10-10-10-10-10-10-10-10-8-8-8-8-8-8-8-8-8-8-8-8-8-8-8-8-|


Guitar 1:
Solo
e|------------------------------------------------------------------|
B|------------------------------------------------------------------|
G|------------------------------------------------------------------|
D|----------5-5-5-5-3-3-3-3-3-10-10-10-10/12-12-12-12-12-12-12-12/--|
A|--5-5-5-5---------------------------------------------------------|
D|------------------------------------------------------------------|

e|--------------------------------------------------------------------|
B|--------------------------------------------------------------------|
G|--12-12-12-12\10-10-10-10-------------------------------------------|
D|--------------------------12-12-12-12-12-12-12-12-----------5-5-5/--|
A|--------------------------------------------------3-3-3-3-3---------|
D|--------------------------------------------------------------------|

e|-------------------------------------|
B|-------------------------------------|
G|-------------------------------------|
D|--7-7-7-7-7\3-3-3-3/5-5-5-5-5-5-5-5--|
A|-------------------------------------|
D|-------------------------------------|

e|------------------------------------------------------------------|
B|------------------------------------------------------------------|
G|------------------------------------------------------------------|
D|----------5-5-5-5-3-3-3-3-3-10-10-10-10/12-12-12-12-12-12-12-12/--|
A|--5-5-5-5---------------------------------------------------------|
D|------------------------------------------------------------------|

e|--------------------------------------------------------------------|
B|--------------------------------------------------------------------|
G|--14-14\12-12\10-10-10-10-------------------------------------------|
D|--------------------------12-12-12-12-12-12-12-12-----------5-5-5/--|
A|--------------------------------------------------3-3-3-3-3---------|
D|--------------------------------------------------------------------|

e|-------------------------------------|
B|-------------------------------------|
G|-------------------------------------|
D|--7-7-7-7-7\3-3-3-3/5-5-5-5-5-5-5-5--|
A|-------------------------------------|
D|-------------------------------------|

e|------------------------------------------------------------------|
B|------------------------------------------------------------------|
G|------------------------------------------------------------------|
D|----------5-5-5-5-3-3-3-3-3-10-10-10-10/12-12-12-12-12-12-12-12/--|
A|--5-5-5-5---------------------------------------------------------|
D|------------------------------------------------------------------|

e|--------------------------------------------------------------------|
B|--------------------------------------------------------------------|
G|--12-12-12-12\10-10-10-10-------------------------------------------|
D|--------------------------12-12-12-12-12-12-12-12-----------5-5-5/--|
A|--------------------------------------------------3-3-3-3-3---------|
D|--------------------------------------------------------------------|

e|------------------------------------|
B|------------------------------------|
G|------------------------------------|
D|--7-7-7-7-7-5--3---5-5-5-5-5-5-5-5--|
A|------------------------------------|
D|------------------------------------|

e|------------------------------------------------------------------|
B|------------------------------------------------------------------|
G|------------------------------------------------------------------|
D|----------5-5-5-5-3-3-3-3-3-10-10-10-10/12-12-12-12-12-12-12-12/--|
A|--5-5-5-5---------------------------------------------------------|
D|------------------------------------------------------------------|

e|--------------------------------------------------------------------|
B|--------------------------------------------------------------------|
G|--12-12-12-12\10-10-10-10-------------------------------------------|
D|--------------------------12-12-12-12-12-12-12-12-----------5-5-5/--|
A|--------------------------------------------------3-3-3-3-3---------|
D|--------------------------------------------------------------------|

e|------------------------------------|
B|------------------------------------|
G|------------------------------------|
D|--7-7-7-7-7-5--3---5-5-5-5-5-5-5-5--|
A|------------------------------------|
D|------------------------------------|


Guitar 2:
during solo (i think it comes in around 1:37?? not sure listen to the song for timing)
e|-------------------------------------------------------------------------|
B|-------------------------------------------------------------------------|
G|-------------------------------------------------------------------------|
D|-3-3-3-3-3-3-3-3-10-10-10-10-10-10-10-10-8-8-8-8-8-8-8-8-8-8-8-8-8-8-8-8-|
A|-3-3-3-3-3-3-3-3-10-10-10-10-10-10-10-10-8-8-8-8-8-8-8-8-8-8-8-8-8-8-8-8-|
D|-3-3-3-3-3-3-3-3-10-10-10-10-10-10-10-10-8-8-8-8-8-8-8-8-8-8-8-8-8-8-8-8-|


Chorus x4
guitar 1
e|---------------------------------------------------------------|
B|---------------------------------------------------------------|
G|-7-7-7-7-7-7-7-7-7-7-7-7-10-10-10------------------------------|
D|-7-7-7-7-7-7-7-7-7-7-7-7-10-10-10-5-5-5/8-8-8-8-8-8-8-0--3-3-5-|
A|-5-5-5-5-5-5-5-5-5-5-5-5--8--8--8-5-5-5/8-8-8-8-8-8-8-0--3-3-5-|
D|-0-0-0-0-0-0-0-0-0-0-0-0----------5-5-5/8-8-8-8-8-8-8-0--3-3-5-|


guitar 2
e|-------------------------------------------------------------------------|
B|-------------------------------------------------------------------------|
G|-------------------------------------------------------------------------|
D|-3-3-3-3-3-3-3-3-10-10-10-10-10-10-10-10-8-8-8-8-8-8-8-8-8-8-8-8-8-8-8-8-|
A|-3-3-3-3-3-3-3-3-10-10-10-10-10-10-10-10-8-8-8-8-8-8-8-8-8-8-8-8-8-8-8-8-|
D|-3-3-3-3-3-3-3-3-10-10-10-10-10-10-10-10-8-8-8-8-8-8-8-8-8-8-8-8-8-8-8-8-|


Outro
both guitars
e|------------------------------|
B|------------------------------|
G|------------------------------|
D|-3-0-3-5-8-5-8-10--8-5-8--5-3-|
A|-3-0-3-5-8-5-8-10--8-5-8--5-3-|
D|-3-0-3-5-8-5-8-10--8-5-8--5-3-|


ok there you go! any problems let me know and i'll fix them and give you credit :]

| . palm mute |
| / slide     |
Tap to rate this tab
 
# A B C D E F G H I J K L M N O P Q R S T U V W X Y Z