Guitaretab - guitar tabs
Song name
# A B C D E F G H I J K L M N O P Q R S T U V W X Y Z

Flyleaf - Im So Sick Acoustic tab

-------------------------------------------------------------------------------
			     Im so Sick (Acoustic) - Flyleaf
-------------------------------------------------------------------------------
Tabbed by: ENtheWonderDog

I figured this song out while watching the acoustic session for this song.  Theres
some minor flaws here and there (mostly rhythm).  Also the 7 vibrato seems a bit sharp when
play it but it sounds too low on a 6.  But other than that its good for the most part.  
think its how it is really played.

Tuning: Drop D (DAdGBe)

Verse
e|-----------------|
B|-----------------|
G|--------5h-7~~~--|
d|--3-0------------|
A|--3-0------------|
D|--3-0------------|
If you want...
e|-------------------------------------|
B|-------------------------------------|
G|----------------------------5h-7~~~--|  x11
d|--6----6--6--4--4--4--3-0------------|
A|--6----6--6--4--4--4--3-0------------|
D|--6----6--6--4--4--4--3-0------------|

e|------------------|
B|------------------|
G|------------------|
d|--6--6-0-3-3-3-3--|
A|--6--6-0-3-3-3-3--|
D|--6--6-0-3-3-3-3--|

Chorus
Im so sick
e|----------------------------------------------|
B|--------11----------11----------7----------7--|
G|--------10----------10----------6----------6--|  x2
d|--------8-----------8-----------5----------5--|
A|-----8-----------8-----------5----------5-----|
D|--8-----------8-----------5----------5--------|

e|---------|
B|-7--7-7--|
G|-6--6-6--|
d|-5--5-5--|
A|-5--5-5--|
D|---------|

(Verse)
(Im so sick... Hear it, Im Screaming it)
[ Tab from: http://www.guitaretab.com/f/flyleaf/118182.html ]
Pre-Chorus
You sink into my clothes...
e|---------------------------------------------------------------------------|
B|--11----11----11--11-11--11-11-11-7----7----7--7-7--7-7-7------------------|
G|--10----10----10--10-10--10-10-10-6----6----6--6-6--6-6-6------------------|  x2
d|--8-----8-----8---8--8---8--8--8--5----5----5--5-5--5-5-5------------------|
A|--8-----8-----8---8--8---8--8--8--5----5----5--5-5--5-5-5------------------|
D|--8-----8-----8---8--8---8--8--8--5----5----5--5-5--5-5-5------------------|

(Chorus)
(Im so sick...)

Verse (reprise)
Im so sick.
e|-----------------|
B|-----------------|
G|--------5h-7~~~--|
d|--3-0------------|
A|--3-0------------|
D|--3-0------------|

e|-------------------------------------|
B|-------------------------------------|
G|----------------------------5h-7~~~--|
d|--6----6--6--4--4--4--3-0------------|
A|--6----6--6--4--4--4--3-0------------|
D|--6----6--6--4--4--4--3-0------------|

e|------------------|
B|------------------|
G|------------------|
d|--6--6-0-3-3-3-3--|
A|--6--6-0-3-3-3-3--|
D|--6--6-0-3-3-3-3--|

(Chorus)
(Im so sick...)

Verse (outro)
Let me live
e|-----------------|
B|-----------------|
G|--------5h-7~~~--|
d|--3-0------------|
A|--3-0------------|
D|--3-0------------|

e|-------------------------------------|
B|-------------------------------------|
G|----------------------------5h-7~~~--|  x11
d|--6----6--6--4--4--4--3-0------------|
A|--6----6--6--4--4--4--3-0------------|
D|--6----6--6--4--4--4--3-0------------|

e|------------------|
B|------------------|
G|------------------|
d|--6--6-0-3-3-3-3--|
A|--6--6-0-3-3-3-3--|
D|--6--6-0-3-3-3-3--|


| /  slide up
| \  slide down
| h  hammer-on
| p  pull-off
| ~  vibrato
| +  harmonic
| x  Mute note
===============================================================================
Related for Im So Sick Acoustic tab