Song name
# A B C D E F G H I J K L M N O P Q R S T U V W X Y Z

Flyleaf - Sorrow Acoustic tab

Help us improve GuitareTab! Take a short survey!
Flyleaf - Sorrow [Acoustic]
Tuning: Drop D

This tab is from the Rolling Stone acoustic session. 
I tried to get the verse as close as I could. But the rest is right.
Comment if theres anything wrong.

Intro
E|------------------------------------------------------------------| 
B|------------------------------------------------------------------| 
G|------------------------------------------------------------------| 
D|-10-12-0-3-5-8-xx--10-12-0-3-5-8-x--10-12-0-3-5-8--10-12-0-3-5-7-8| 
A|-10-12-0-3-5-8-xx--10-12-0-3-5-8-x--10-12-0-3-5-8--10-12-0-3-5-7-8| 
D|-10-12-0-3-5-8-xx--10-12-0-3-5-8-x--10-12-0-3-5-8--10-12-0-3-5-7-8| 


Verse
E|---------------------------------------------------| 
B|---------------------------------------------------| 
G|-11-11--11--------------------11-------------------| 
D|-------------13-13---15/11--------11---13-13---0~--| 
A|-------7--7/8------8-------------7--7/8--------0~--| 
D|----------------------------8------------------0~--| 

E|--------------------------------------------------| 
B|----------------------------------------5555-5555-| 
G|----------------------------------------5555-5555-| 
D|-555555-555555--777777-777777--0~-0000--3333-3333-| 
A|-555555-555555--777777-777777--0~-0000--3333-3333-| 
D|-555555-555555--777777-777777--0~-0000--3333-3333-| 
   ...... ......  ...... ....

E|------------------------------------------| 
B|---------------------------------------3~-| 
G|--11-11--------------------------------2~-| 
D|----------11-11---13-13----15-15-------0~-| 
A|--------7-------8----------------------0~-| 
D|-8----------------------10-------12----0~-| 


Chorus
e|----------------------------| 
B|-----------------555-5555---| 
G|-----2--222--5~--555-5555---| 
D|-888-0~-000--3~--333-3333---|x2
A|-888-0~-000--3~--333-3333---| 
D|-888-0~-000--3~--333-3333---| 

e|------------------------------------------------| 
B|------------------------------------------------| 
G|-----2--222--5~-555--9~-999---10-101010--999--2-| 
D|-888-0~-000--3~-333--7~-777---8~-8-8-8---777--0~| 
A|-888-0~-000--3~-333--7~-777---8~-8-8-8---777--0~| 
D|-888-0~-000--3~-333--7~-777---8~-8-8-8---777--0~| 


Verse
E|----------------------------------------------------------| 
B|----------------------------------------------------------| 
G|-11-11-11--------------------------11-11------------------| 
D|----------11-----13-13---15-15-----------11----13-13--0~--| 
A|--------------7/8----------------------7---7/8--------0~--| 
D|-----------------------10------8----------------------0~--| 

E|--------------------------------------------------| 
B|----------------------------------------5555-5555-| 
G|----------------------------------------5555-5555-| 
D|-555555-555555--777777-777777--0~-0000--3333-3333-| 
A|-555555-555555--777777-777777--0~-0000--3333-3333-| 
D|-555555-555555--777777-777777--0~-0000--3333-3333-| 
   ...... ......  ...... ....


E|------------------------------------------| 
B|---------------------------------------3~-| 
G|--11-11--------------------------------2~-| 
D|----------11-11---13-13----15-15-------0~-| 
A|--------7-------8----------------------0~-| 
D|-8----------------------10-------12----0~-| 


Repeat Chorus


Bridge 
E|----------------------------|--------------------|
B|----------------------------|--------------------|
G|----------------------------|--------------------|
D|-555555-777777-888888888888-|-555555-777777-8-8-0|
A|-555555-777777-888888888888-|-555555-777777-8-8-0|
D|-555555-777777-888888888888-|-555555-777777-8-8-0|


E|----------------------------|---------------------------|
B|----------------------------|---------------------------|
G|----------------------------|---------------------------|
D|-555555-777777-888888888888-|-333333333333-10-10-101010\| 
A|-555555-777777-888888888888-|-333333333333-10-10-101010\| 
D|-555555-777777-888888888888-|-333333333333-10-10-101010\| 


Repeat Intro

E|-----|-----------------------------| 
B|-----|-----------------------------| 
G|-----|-----------------------------| 
D|-xxx-|-10-12-0-3-5-8--10-12-0-3-5-8| 
A|-xxx-|-10-12-0-3-5-8--10-12-0-3-5-8| 
D|-xxx-|-10-12-0-3-5-8--10-12-0-3-5-8| 
Related for Sorrow Acoustic tab