Guitaretab - guitar tabs
Song name
# A B C D E F G H I J K L M N O P Q R S T U V W X Y Z

Flyleaf - Flyleaf tab

im really sorry i nicked you work, lol, nicked, i have a friend called nick
these are in alphebetical order and i think all songs are in drop d, unless i state otherwise



all around me



intro

palm mute  guitar 1
e--------------------------------|
b--------------------------------|
g--------------------------------|
d-44444444---77777777----0000000-|
a-44444444---77777777----0000000-|
D-44444444---77777777----0000000-|


       guitar 2
e------0---------0-----|
B--------2-------------|
G---2----------2-------|
D-4--------------------|
A----------------------|
D----------------------|

           guitar 1
---------------------------------------------------------|
---------------------------------------------------------|
---------------------------------------------------------|
4444----7777----0000----2222----0000----11111111----0000-|
4444----7777----0000----2222----0000----11111111----0000-|
4444----7777----0000----2222----0000----11111111----0000-|


e------0--------------------------0-----------|------------|
B--------2---------2h3p2----------------------|-------2----|
G---2---------2---------------2-2-----1h2p1---|-----1----2-|
D-4---------4----2--------4-----------------4-|-4----------|
A---------------------------0-------4---------|------------|
D---------------------------------------------|------------|

Verse 1

--------------------------------      -----|
--------------------------------      -----|
--------------------------------      -----|
44444444----77777777----00000000      1111-|
44444444----77777777----00000000      1111-|
44444444----77777777----00000000 x2   1111-|

                                          elevens


"im Alive"

----------------|
----------------|
----------------|    x2
6----7----0-----|
6----7----0-----|
6----7----0-----|


  guitar 2

0--4--2--4--0--4--2--4-|
-----------------------|
-----------------------|
-----------------------|
-----------------------|
-----------------------|


 chorus
                                       elevens
-------------------------------------------------|
-------------------------------------------------|
-------------------------------------------------|
4444----7777----0000----2222----0000----11111111-|
4444----7777----0000----2222----0000----11111111-|
4444----7777----0000----2222----0000----11111111-|

-----------------------------------------|
-----------------------------------------|
-----------------------------------------|
4444----0000----2222----11111111----0000-|
4444----0000----2222----11111111----0000-|
4444----0000----2222----11111111----0000-|

then repeat in this order

verse
refrain
chrous
refrain
chorus


___________________________________________________________

amy says

Chords Used:
   Am    C   F   G
e|----|----|---|---|
B|-10-|-13-|-6-|-8-|
G|-9--|-12-|-5-|-7-|
D|-7--|-10-|-3-|-5-|
A|-7--|-10-|-3-|-5-|
D|-7--|-10-|-3-|-5-|

Intro: x2
          Am               C     F
e|-----------------------------0----0---|
B|-------0---1----1--1--------1--1------|
G|-----2---2---2---2--2-0----0----2-----|
D|---2----------------------2-----------|
A|-0-----------------------3------------|
E|--------------------------------------|

repeat intro x4 for first part of verse

Verse 1:
Am C F
Amy says she's all alone
Am C F
Says the world doesn't even know
Am C F
About the pain she hides inside
Am C F
Says happiness is just a lie

(with distortion)
Am C F
Smell the roses throw them down
Am C F
Just whisper, don't make a sound
Am C F
Don't want the world to know the truth
Am G F
You've been broken and abused...by you


Refrain 1:
F
Amy says
Am G F
"I see you laughing at the rain that hits your face
Am G F
With your arms stretched open soaking in the love"


Chorus 1:
Am G F
"In a world I find so hard you find so beautiful
Am G F
There's a hope in you deep inside for me"

(clean guitar)
Intro (x2)

then intro x4 for first part of verse

Verse 2:
Am C F
The colors of her mind
Am C F
Bleed into each other
Am C F
As the morning melts the night
Am C F
And the stars enchant another

(distortion)
Am C F
While her eyes are still held shut
Am C F
She can hear you breathing softly
Am C F
Your words echo in her mind
Am G F
And your words are clear and she knows that you are here


Refrain 2:
F
You are here
Am G F
I see her laughing at the rain that hits her face
Am G F
With her arms stretched open soaking in the love


Chorus 2:
Am G F
In a world she found so hard she finds so beautiful
Am G F
There's hope in her deep inside from you

Am G F
I see her laughing at the rain that hits her face
Am G F
With her arms stretched open soaking in the love

(Repeat Chorus 2)


___________________________________________________________

breath today

Intro (Verse)
e|---------------------------------------------------------------------------|
B|---------------------------------------------------------------------------|
G|---------------------------------------------------------------------------|
D|---------------------------------------------------------------------------|
A|-99-99-99-5/7\5\4/5\4-----99-99-99-5/7\5\4/5\4----99-99-99-5/7\5\4/5\4-----|
D|-99-99-99-5/7\5\4/5\4-----99-99-99-5/7\5\4/5\4----99-99-99-5/7\5\4/5\4-----|
                           "You can only move..."
e|---------------------------------------------------------------------------|
B|---------------------------------------------------------------------------|
G|---------------------------------------------------------------------------|
D|---------------------------------------------------------------------------|
A|-99-99-99-5/7\5\4/5\4------------------------------------------------------|
D|-99-99-99-5/7\5\4/5\4------------------------------------------------------|
(99 part has distortion and the first 5/7 part)

Pre-Chorus				   Pre-Chorus #2
e|---------------------------------------|-----------------------------------|
B|---------------------------------------|-----------------------------------|
G|---------------------------------------|-----------------------------------|
D|-55555555\44444444/55555555\44444444---|-55555555\44444444\2222/5555\44444-|
A|-55555555\44444444/55555555\44444444---|-55555555\44444444\2222/5555\44444-|
D|-55555555\44444444/55555555\44444444---|-55555555\44444444\2222/5555\44444-|
"You can breathe today"

Chorus
e|---------------------------------------------------------------------------|
B|---------------------------------------------------------------------------|
G|---------------------------------------------------------------------------|
D|-9999-5555-7777-4-2--9999-5555-7777-4-2------------------------------------|
A|-9999-5555-7777-4-2--9999-5555-7777-4-2------------------------------------|
D|-9999-5555-7777-4-2--9999-5555-7777-4-2------------------------------------|
"So many lies swirling...  The empty shape in you..."

Pre-Bridge
e|---------------------------------------------------------------------------|
B|---------------------------------------------------------------------------|
G|---------------------------------------------------------------------------|
D|----------------------------------------9--5--7--4-2-----------------------|
A|----------------------------------------9--5--7--4-2-----------------------|
D|-2222/5555\444444444-2222/5555\44444----9--5--7--4-2-----------------------|
"BREATHE!!!" (I have yet to figure out the sorta mini solo for this part)

Bridge
e|---------------------------------------------------------------------------|
B|---------------------------------------------------------------------------|
G|---------------------------------------------------------------------------|
D|---------------------------------------------------------------------------|
A|-22--22-55-55\44--44-44-44--22--22-55-55\44--44-44-------------------------|
D|-22--22-55-55\44--44-44-44--22--22-55-55\44--44-44-------------------------|
"Big enough to fill the void that's inside of you..."

Outro
e|---------------------------------------------------------------------------|
B|---------------------------------------------------------------------------|
G|---------------------------------------------------------------------------|
D|-9999-5555-7777-4----------------------------------------------------------|
A|-9999-5555-7777-4----------------------------------------------------------|
D|-9999-5555-7777-4----------------------------------------------------------|
(also played at the end of the chorus before the Pre-Bridge)


______________________________________________________________

cassie

Intro: x4
e(-------------------)
b(-------------------)
g(-------------------)
d(--7777885577558877-)
a(--7777885577558877-)
D(--7777885577558877-)

Verse 1:
e(------)           
b(------)           
g(------)           
d(--777-)           
a(--777-)           
D(------)           
  pm...  

e(------------)
b(------------)
g(------------)
d(--777777775-)
a(--777777775-)
D(--777777775-)
  pm.........

Chorus: x2
e(-----------------------------------------------------)
b(-----------------------------------------------------)
g(----------------5-555-555-55555----------------------)
d(7-777-777-77777-5-555-555-55555-5-555-555-55555-3-333)  
a(7-777-777-77777-3-333-333-33333-5-555-555-55555-3-333)
D(7-777-777-77777-----------------5-555-555-55555-3-333)

Intro: x2

Verse 2:
e(------------)
b(------------)
g(------------)
d(--777777775-)
a(--777777775-)
D(--777777775-)
  pm.........

Chorus: x2

Interlude: this part is much slower than it looks
e(-------------------------------------------------------------------)
b(--8/10-10-8/5-8/10---------8/10-10-8/10-8-8/10-10-8/5-8/10---------)
g(-------------------9-7h9-7---------------------------------9-7h9-7-)
d(-------------------------------------------------------------------)
a(-------------------------------------------------------------------)
D(-------------------------------------------------------------------)

e(----------------------------------------)
b(10-10-10-10-1010101010101010101010101010)
g(----------------------------------------)
d(----------------------------------------)
a(----------------------------------------)
D(----------------------------------------)

Ending Chorus:
e(--------------------------------------------------------)
b(--------------------------------------------------------)
g(----------------5-555-555-55555-------------------------)
d(7-777-777-77777-5-555-555-55555-5-555-555-55555-3-3-3-3-) 
a(7-777-777-77777-3-333-333-33333-5-555-555-55555-3-3-3-3-)
D(7-777-777-77777-----------------5-555-555-55555-3-3-3-3-)

e(-----------------------------------------------------)
b(-----------------------------------------------------)
g(----------------5-555-555-55555----------------------)
d(7-777-777-77777-5-555-555-55555-5-555-555-55555-3-333)  
a(7-777-777-77777-3-333-333-33333-5-555-555-55555-3-333)
D(7-777-777-77777-----------------5-555-555-55555-3-333)

e(-----------------------------------------------------)
b(-----------------------------------------------------)
g(----------------5-555-555-55555----------------------)
d(7-777-777-77777-5-555-555-55555-5-555-555-55555-33333)  
a(7-777-777-77777-3-333-333-33333-5-555-555-55555-33333)
D(7-777-777-77777-----------------5-555-555-55555-33333)

__________________________________________________________

fully alive

Intro:
both guitars
e|------------------|
B|------------------|
G|------------------|
D|------------------| x2
A|------------------|
D|-3-0-3-5-8-5-8-10-|

e|------------------------------|
B|------------------------------|
G|------------------------------|
D|------------------------------|
A|------------------------------|
D|-3-0-3-5-8-5-8-10--8-5-8--5-3-|

e|------------------------------|
B|------------------------------|
G|------------------------------|
D|-3-0-3-5-8-5-8-10--8-5-8--5-3-| x2
A|-3-0-3-5-8-5-8-10--8-5-8--5-3-|
D|-3-0-3-5-8-5-8-10--8-5-8--5-3-|


Verse x4
both guitars
e|------------------------------------------------|
B|------------------------------------------------|
G|------------------------------------------------|
D|-3-0---5-0--------------------------------------|
A|-3-0---5-0---3-0-3-5-8-5-8-10--3-0-3-5-8-5-8-10-|
D|-3-0---5-0---3-0-3-5-8-5-8-10--3-0-3-5-8-5-8-10-|
   . .   . .   . . . . . . .  .  . . . . . . .  .


Chorus x2
guitar 1
e|---------------------------------------------------------------|
B|---------------------------------------------------------------|
G|-7-7-7-7-7-7-7-7-7-7-7-7-10-10-10------------------------------|
D|-7-7-7-7-7-7-7-7-7-7-7-7-10-10-10-5-5-5/8-8-8-8-8-8-8-0--3-3-5-|
A|-5-5-5-5-5-5-5-5-5-5-5-5--8--8--8-5-5-5/8-8-8-8-8-8-8-0--3-3-5-|
D|-0-0-0-0-0-0-0-0-0-0-0-0----------5-5-5/8-8-8-8-8-8-8-0--3-3-5-|

guitar 2
e|-------------------------------------------------------------------------|
B|-------------------------------------------------------------------------|
G|-------------------------------------------------------------------------|
D|-3-3-3-3-3-3-3-3-10-10-10-10-10-10-10-10-8-8-8-8-8-8-8-8-8-8-8-8-8-8-8-8-|
A|-3-3-3-3-3-3-3-3-10-10-10-10-10-10-10-10-8-8-8-8-8-8-8-8-8-8-8-8-8-8-8-8-|
D|-3-3-3-3-3-3-3-3-10-10-10-10-10-10-10-10-8-8-8-8-8-8-8-8-8-8-8-8-8-8-8-8-|

Verse
both guitars
e|------------------------------|
B|------------------------------|
G|------------------------------| (this part x3)
D|-3-0---5-0--------------------|
A|-3-0---5-0---3-0-3-5-8-5-8-10-|
D|-3-0---5-0---3-0-3-5-8-5-8-10-|
   . .   . .   . . . . . . .  .

e|--------------------------------------------|
B|--------------------------------------------|
G|--------------------------------------------|
D|-3-0---5-0----------------------------------|
A|-3-0---5-0---3-0-3-5-8-5-8-10---8-5-8---5-3-|
D|-3-0---5-0---3-0-3-5-8-5-8-10---8-5-8---5-3-|
   . .   . .   . . . . . . .  .   . . .   . .


Chorus x2
guitar 1
e|---------------------------------------------------------------|
B|---------------------------------------------------------------|
G|-7-7-7-7-7-7-7-7-7-7-7-7-10-10-10------------------------------|
D|-7-7-7-7-7-7-7-7-7-7-7-7-10-10-10-5-5-5/8-8-8-8-8-8-8-0--3-3-5-|
A|-5-5-5-5-5-5-5-5-5-5-5-5--8--8--8-5-5-5/8-8-8-8-8-8-8-0--3-3-5-|
D|-0-0-0-0-0-0-0-0-0-0-0-0----------5-5-5/8-8-8-8-8-8-8-0--3-3-5-|

guitar 2
e|-------------------------------------------------------------------------|
B|-------------------------------------------------------------------------|
G|-------------------------------------------------------------------------|
D|-3-3-3-3-3-3-3-3-10-10-10-10-10-10-10-10-8-8-8-8-8-8-8-8-8-8-8-8-8-8-8-8-|
A|-3-3-3-3-3-3-3-3-10-10-10-10-10-10-10-10-8-8-8-8-8-8-8-8-8-8-8-8-8-8-8-8-|
D|-3-3-3-3-3-3-3-3-10-10-10-10-10-10-10-10-8-8-8-8-8-8-8-8-8-8-8-8-8-8-8-8-|


Guitar 1:
Solo
e|------------------------------------------------------------------|
B|------------------------------------------------------------------|
G|------------------------------------------------------------------|
D|----------5-5-5-5-3-3-3-3-3-10-10-10-10/12-12-12-12-12-12-12-12/--|
A|--5-5-5-5---------------------------------------------------------|
D|------------------------------------------------------------------|

e|--------------------------------------------------------------------|
B|--------------------------------------------------------------------|
G|--12-12-12-12\10-10-10-10-------------------------------------------|
D|--------------------------12-12-12-12-12-12-12-12-----------5-5-5/--|
A|--------------------------------------------------3-3-3-3-3---------|
D|--------------------------------------------------------------------|

e|-------------------------------------|
B|-------------------------------------|
G|-------------------------------------|
D|--7-7-7-7-7\3-3-3-3/5-5-5-5-5-5-5-5--|
A|-------------------------------------|
D|-------------------------------------|

e|------------------------------------------------------------------|
B|------------------------------------------------------------------|
G|------------------------------------------------------------------|
D|----------5-5-5-5-3-3-3-3-3-10-10-10-10/12-12-12-12-12-12-12-12/--|
A|--5-5-5-5---------------------------------------------------------|
D|------------------------------------------------------------------|

e|--------------------------------------------------------------------|
B|--------------------------------------------------------------------|
G|--14-14\12-12\10-10-10-10-------------------------------------------|
D|--------------------------12-12-12-12-12-12-12-12-----------5-5-5/--|
A|--------------------------------------------------3-3-3-3-3---------|
D|--------------------------------------------------------------------|

e|-------------------------------------|
B|-------------------------------------|
G|-------------------------------------|
D|--7-7-7-7-7\3-3-3-3/5-5-5-5-5-5-5-5--|
A|-------------------------------------|
D|-------------------------------------|

e|------------------------------------------------------------------|
B|------------------------------------------------------------------|
G|------------------------------------------------------------------|
D|----------5-5-5-5-3-3-3-3-3-10-10-10-10/12-12-12-12-12-12-12-12/--|
A|--5-5-5-5---------------------------------------------------------|
D|------------------------------------------------------------------|

e|--------------------------------------------------------------------|
B|--------------------------------------------------------------------|
G|--12-12-12-12\10-10-10-10-------------------------------------------|
D|--------------------------12-12-12-12-12-12-12-12-----------5-5-5/--|
A|--------------------------------------------------3-3-3-3-3---------|
D|--------------------------------------------------------------------|

e|------------------------------------|
B|------------------------------------|
G|------------------------------------|
D|--7-7-7-7-7-5--3---5-5-5-5-5-5-5-5--|
A|------------------------------------|
D|------------------------------------|

e|------------------------------------------------------------------|
B|------------------------------------------------------------------|
G|------------------------------------------------------------------|
D|----------5-5-5-5-3-3-3-3-3-10-10-10-10/12-12-12-12-12-12-12-12/--|
A|--5-5-5-5---------------------------------------------------------|
D|------------------------------------------------------------------|

e|--------------------------------------------------------------------|
B|--------------------------------------------------------------------|
G|--12-12-12-12\10-10-10-10-------------------------------------------|
D|--------------------------12-12-12-12-12-12-12-12-----------5-5-5/--|
A|--------------------------------------------------3-3-3-3-3---------|
D|--------------------------------------------------------------------|

e|------------------------------------|
B|------------------------------------|
G|------------------------------------|
D|--7-7-7-7-7-5--3---5-5-5-5-5-5-5-5--|
A|------------------------------------|
D|------------------------------------|


Guitar 2:
during solo (i think it comes in around 1:37?? not sure listen to the song for timing)
e|-------------------------------------------------------------------------|
B|-------------------------------------------------------------------------|
G|-------------------------------------------------------------------------|
D|-3-3-3-3-3-3-3-3-10-10-10-10-10-10-10-10-8-8-8-8-8-8-8-8-8-8-8-8-8-8-8-8-|
A|-3-3-3-3-3-3-3-3-10-10-10-10-10-10-10-10-8-8-8-8-8-8-8-8-8-8-8-8-8-8-8-8-|
D|-3-3-3-3-3-3-3-3-10-10-10-10-10-10-10-10-8-8-8-8-8-8-8-8-8-8-8-8-8-8-8-8-|

[ Tab from: http://www.guitaretab.com/f/flyleaf/182206.html ]
Chorus x4
guitar 1
e|---------------------------------------------------------------|
B|---------------------------------------------------------------|
G|-7-7-7-7-7-7-7-7-7-7-7-7-10-10-10------------------------------|
D|-7-7-7-7-7-7-7-7-7-7-7-7-10-10-10-5-5-5/8-8-8-8-8-8-8-0--3-3-5-|
A|-5-5-5-5-5-5-5-5-5-5-5-5--8--8--8-5-5-5/8-8-8-8-8-8-8-0--3-3-5-|
D|-0-0-0-0-0-0-0-0-0-0-0-0----------5-5-5/8-8-8-8-8-8-8-0--3-3-5-|


guitar 2
e|-------------------------------------------------------------------------|
B|-------------------------------------------------------------------------|
G|-------------------------------------------------------------------------|
D|-3-3-3-3-3-3-3-3-10-10-10-10-10-10-10-10-8-8-8-8-8-8-8-8-8-8-8-8-8-8-8-8-|
A|-3-3-3-3-3-3-3-3-10-10-10-10-10-10-10-10-8-8-8-8-8-8-8-8-8-8-8-8-8-8-8-8-|
D|-3-3-3-3-3-3-3-3-10-10-10-10-10-10-10-10-8-8-8-8-8-8-8-8-8-8-8-8-8-8-8-8-|


Outro
both guitars
e|------------------------------|
B|------------------------------|
G|------------------------------|
D|-3-0-3-5-8-5-8-10--8-5-8--5-3-|
A|-3-0-3-5-8-5-8-10--8-5-8--5-3-|
D|-3-0-3-5-8-5-8-10--8-5-8--5-3-|

_______________________________________________________

im so sick

Main Riff

e|------------------------------------------------|
B|------------------------------------------------|
G|---------------------------------------11-11-11-|
D|--3----0--3--0--3--4--3--0--4/6--6--6--x--x--x--|
A|--3----0--3--0--3--4--3--0--4/6--6--6--9--9--9--|
D|--3----0--3--0--3--4--3-—0--4/6--6--6-----------|


Bridge? Pre-Chorus?

e|-----------------------------------------------------------------|
B|-----------------------------------------------------------------|
G|-----------------------------------------------------------------|
D|-8-8-8-8-8-8-8-8-8-8-8-8-8-8-8-8-5-5-5-5-5-5-5-5-5-5-5-5-5-5-5-5-|
A|-8-8-8-8-8-8-8-8-8-8-8-8-8-8-8-8-5-5-5-5-5-5-5-5-5-5-5-5-5-5-5-5-| x2
D|-8-8-8-8-8-8-8-8-8-8-8-8-8-8-8-8-5-5-5-5-5-5-5-5-5-5-5-5-5-5-5-5-|


Outro

e|-----------------------------------------------------------------|
B|-----------------------------------------------------------------|
G|-----------------------------------------------------------------|
D|-3-3-3-3-3-3-3-3-3-3-3-3-3-3-3-3-0-0-0-0-0-0-0-0-0-0-0-0-0-0-0-0-|
A|-3-3-3-3-3-3-3-3-3-3-3-3-3-3-3-3-0-0-0-0-0-0-0-0-0-0-0-0-0-0-0-0-|
D|-3-3-3-3-3-3-3-3-3-3-3-3-3-3-3-3-0-0-0-0-0-0-0-0-0-0-0-0-0-0-0-0-|

  ---------------------------------|
  ---------------------------------|
  -5-5-5-5-5-5-5-5-5-5-5-5-5-5-5-5-|
  -5-5-5-5-5-5-5-5-5-5-5-5-5-5-5-5-| repeat
  -3-3-3-3-3-3-3-3-3-3-3-3-3-3-3-3-|
  ---------------------------------|

______________________________________________________________

perfect

e(--------------------------------------------)
b(--------------------------------------------)
g(---------------------------------------5555-)
d(--4-4-/9-999-4-4-/9-999-4-4-/9-999-7-5-5555-)
a(--4-4-/9-999-4-4-/9-999-4-4-/9-999-7-5-3333-)
D(--4-4-/9-999-4-4-/9-999-4-4-/9-999-7-5------)

pre-chorus(lead)
e(-------------------)
b(--8/11-11-11-11-11-)
g(-------------------)
d(-------------------)
a(-------------------)
D(-------------------)

verse
e(----------7-------7------7---------7---------7----7-)
b(--7-7---7---7---7---7h10---10-7h10---10-7h10---10---)
g(------9-------9-------------------------------------)
d(----------------------------------------------------)
a(----------------------------------------------------)
D(----------------------------------------------------)

chorus(x2)
e(-----------------)
b(-----------------)
g(-----------------)
d(--777x544x777222-)
a(--777x544x777222-)
D(--777x544x777222-)

chorus(lead)(x2)
e(-----------)
b(--10-7-----)
g(-------9-7-)
d(-----------)
a(-----------)
D(-----------)

second post-chorus
e(---------------------------)
b(---------------------------)
g(---------------------------)
d(---------------------------)
a(---------------------------)
D(--222222220000000022222222-)
  pm........................

bridge
e(-------------------------)
b(-------------------------)
g(-------------------------)
d(-------------------------)
a(--2-2-0-0-2-2-0-0-555555-)
D(-------------------------)

bridge(lead)
e(--------------------------)
b(--------------------------)
g(--------------------------)
d(--10-10-10-10-10-10-10-10-)
a(--------------------------)
D(--------------------------)

second part of bridge is the pre-chorus with a different lead
e(---------------7/9-6/7-/9-7/9-7/5-5/7-)
b(--7-7-7-77-777------------------------)
g(--------------------------------------)
d(--------------------------------------)
a(--------------------------------------)
D(--------------------------------------)

____________________________________________________

so i thought

Verse
-----

clean

guitar1

e|-------17--14-----------17-------------|
b|---15---------15----15-----14h15p14-12-|
g|---------------------------------------|
D|---------------------------------------|
A|---------------------------------------|
D|---------------------------------------|

guitar2

e|---------------------------------------|
b|---------------------------------------|
g|---------------------------------------|
D|-0----------------0--------------------|
A|---------------------------------------|
D|---------------------------------------|

guitar1

e|-----------------------------------------------------------------|
b|-----------------------------------------------------------------|
g|------9-7----7--9-7---11----11--11--11-11-12----12--11h12-12--14-|
D|---7---------------------12------------------12-----12-----------|
A|-----------------------------------------------------------------|
D|-----------------------------------------------------------------|

guitar2

e|-----------------------------------------------------------------|
b|-----------------------------------------------------------------|
g|-----------------------------------------------------------------|
D|-----------------------------------------------------------------|
A|-2----------0----------------------------------------------------|
D|--------------------3--------------------------------------------|

Each time guitar1 is played a little bit different, but i couldnīt figure it out.


------
Chours
------

distorted
play2x

e|-----------------------------|
b|-----------------------------|
g|-----------------------------|
D|-0-0--0-0--0-0-9-9--9-5--5-5-|
A|-0-0--0-0--0-0-9-9--9-5--5-5-|
D|-0-0--0-0--0-0-9-9--9-5--5-5-|

then

e|---------------------------------------------------------|
b|---------------------------------------------------------|
g|---------------------------------------------------------|
D|-0-0--0-0--0-0-9-9--9-5--5-5-2-2--2-2--2-2-5-5--5-5--5-5-|
A|-0-0--0-0--0-0-9-9--9-5--5-5-2-2--2-2--2-2-5-5--5-5--5-5-|
D|-0-0--0-0--0-0-9-9--9-5--5-5-2-2--2-2--2-2-5-5--5-5--5-5-|

e|---
b|---
g|---
D|-9-
A|-9- let ring
D|-9-


------
bridge
------

clean
something like this

e|---------------------------------------------------------------|
b|-------------------------------------------10-8----------------|
g|-11h12-11h12-11h12-11h12-11h12-11h12-11h12------11-11h12-11h12-|
D|---------------------------------------------------------------|
A|---------------------------------------------------------------|
D|---------------------------------------------------------------|


----
Solo
----

while guitar1 plays chours guitar2 plays

e|---------------------------17--------------------------------------------|
b|-14b-----14h15p14h15-15-15--------14h15p14h15-15-15-15-17-17-17-17-17-17-|
g|-------------------------------------------------------------------------|
D|-------------------------------------------------------------------------|
A|-------------------------------------------------------------------------|
D|-------------------------------------------------------------------------|

e|-------------------17-----22-22-22-22-22-22-22-22----------------------|
b|-14h15p14h15-15-15--------------------------------22-22-22-22-20-20-20-|
g|-----------------------------------------------------------------------|
D|-----------------------------------------------------------------------|
A|-----------------------------------------------------------------------|
D|-----------------------------------------------------------------------|

e|--------------------17--------------------------------------------|
b|--14h15p14h15-15-15--------14h15p14h15-15-15-15-17-17-17-17-17-17-|
g|------------------------------------------------------------------|
D|------------------------------------------------------------------|
A|------------------------------------------------------------------|
D|------------------------------------------------------------------|

e|-----------------------------------|
b|-----------------------------------|
g|-19--------14--11----11----12--14--|
D|----16--16--------12----12---------|
A|-----------------------------------|
D|-----------------------------------|

then
distorted

e|---
b|---
g|---
D|-0-
A|-0- let ring
D|-0-

play 2x

e|----------------------------------------------------------|
b|----------------------------------------------------------|
g|----------------------------------------------------------|
D|-9-9--9-9--9-9-7-7--7-7--7-7-5-5--5-5--5-5--5-5--5-5--5-5-|
A|-9-9--9-9--9-9-7-7--7-7--7-7-5-5--5-5--5-5--5-5--5-5--5-5-|
D|-9-9--9-9--9-9-7-7--7-7--7-7-5-5--5-5--5-5--5-5--5-5--5-5-|

play 2x

e|-----------------------------------------------------------------|
b|-----------------------------------------------------------------|
g|-----------------------------------------------------------------|
D|-9-9-9-9-9-9-9-9-7-7-7-7-7-7-7-7-5-5-5-5-5-5-5-5-5-5-5-5-5-5-5-5-|
A|-9-9-9-9-9-9-9-9-7-7-7-7-7-7-7-7-5-5-5-5-5-5-5-5-5-5-5-5-5-5-5-5-|
D|-9-9-9-9-9-9-9-9-7-7-7-7-7-7-7-7-5-5-5-5-5-5-5-5-5-5-5-5-5-5-5-5-|

end on

e|---
b|---
g|---
D|-0-
A|-0- let ring
D|-0-

_____________________________________________

sorrow

Intro
E------------------------------------------------------------------|
B------------------------------------------------------------------|
G------------------------------------------------------------------|
D--10-12-0-3-5-8-XX-10-12-0-3-5-8-X-10-12-0-3-5-8--10-12-0-3-5-7-8-|
A--10-12-0-3-5-8-XX-10-12-0-3-5-8-X-10-12-0-3-5-8--10-12-0-3-5-7-8-|
D--10-12-0-3-5-8-XX-10-12-0-3-5-8-X-10-12-0-3-5-8--10-12-0-3-5-7-8-|

Verse
E-1-1---------------------1-1--------------------------------------|
B-------1----3-3---5\1----------1----3-3---------------------------|
G------------------------------------------------------------------|
D-----2--2/3-----------------2--2/3--------------------------------|
A----------------3------1------------------------------------------|
D------------------------------------------------------------------|

1st Guitar
E-----------------------------------------------------------------|
B-3-3-3-----3-3-3-----3-3-3--5-5--8-8-8---------------------------|
G-----------------------------------------------------------------|
D-----------------------------------------------------------------|
A-----------------------------------------------------------------|
D-----------------------------------------------------------------|
..familier breath of my old lies(same goes for 2nd guitar)

2nd Guitar(Sameer's guitar with violin stick)
E-----------------------------------------------------------------|
B-----------------------------------------------------------------|
G-----------------------------------------------------------------|
D--5--7--0--10----------------------------------------------------|
A--5--7--0--10----------------------------------------------------|
D--5--7--0--10----------------------------------------------------|

1st guitar
E---1-1-----------------------------------------------------------|
B--------1-1---3-3---5-5------------------------------------------|
G-----------------------------------------------------------------|
D------2-----3----------------------------------------------------|
A-1----------------3-----5----------------------------------------|
D-----------------------------------------------------------------|
..Soon he will perferate the fabric..

Chorus                 x2
E---------------------------|-------------------------------------|
B--------------5-6-5-1-5----|-------------------------------------|
G--------------5-5-5-0-5----|-------------------------------------|
D-888-0-333333--------------|-888-0-333-777--888-777-0------------|
A-888-0-333333--------------|-888-0-333-777--888-777-0------------|
D-888-0-333333--------------|-888-0-333-777--888-777-0------------|


Verse 2
E-1-1-1----------------------1-1-----------------------------------|
B-------1------3-3----5-5-----------1----3-3-----------------------|
G------------------------------------------------------------------|
D---------2\3---------------------2---2\3--------------------------|
A-------------------3------1---------------------------------------|
D------------------------------------------------------------------|

1st Guitar
2nd Guitar
1st Guitar( soon he will..)
Chorus


1st Guitar(bridge/guitar solo)
E---------------------------------------------------------------------|
B---------------------------------------------------------------------|
G----9-10------------------9-10----------------9-10-------------------|
D-7-8----7-8-7----------7-8----7-8-7--------7-8----7-8-7----------7-8-|
A-------------8-7-8-10-8------------8-7-8-10------------8-7-8-10-8----|
D---------------------------------------------------------------------|

1st guitar cont.
E---------------------------------------------------------------------|
B-------------------------------------------------------------8-8-8-8-|
G-9-10------------------9-10----------------9-10----------------------|
D-----7-8-7----------7-8----7-8-7--------7-8----7-8-7-----------------|
A----------8-7-8-10-8------------8-7-8-10------------8-7-8-10-8-------|
D---------------------------------------------------------------------|

2nd Guitar(during the solo background)
E-------------------------------------------------------------------------|
B-------------------------------------------------------------------------|
G-------------------------------------------------------------------------|
D-555555-777777-8888888---555555-777777-88-0---555555-777777-888888888888-|
A-555555-777777-8888888---555555-777777-88-0---555555-777777-888888888888-|
D-555555-777777-8888888---555555-777777-88-0---555555-777777-888888888888-|

2nd Guitar cont.
E--------------------------------------------------------------------|
B--------------------------------------------------------------------|
G--------------------------------------------------------------------|
D-333333333333-10-10-------------------------------------------------|
A-333333333333-10-10-------------------------------------------------|
D-333333333333-10-10-------------------------------------------------|


Chorus              X2
E---------------------------|----------------------------------------|
B--------------5-6-5-1-5----|-----------------------------2\3-222----|
G--------------5-5-5-0-5----|----------------------------------------|
D-888-0-333333--------------|-888-0-333-777-888-777-000--------------|
A-888-0-333333--------------|-888-0-333-777-888-777-000--------------|
D-888-0-333333--------------|-888-0-333-777-888-777-000--------------|

End
E--------------------------------------------------------------------|
B--------------------------------------------------------------------|
G--------------------------------------------------------------------|
D-10-12-0-3-5-8-XX-10-12-0-3-5-8-X-10-12-0-3-5-8--10-12-0-3-5-8------|
A-10-12-0-3-5-8-XX-10-12-0-3-5-8-X-10-12-0-3-5-8--10-12-0-3-5-8------|
D-10-12-0-3-5-8-XX-10-12-0-3-5-8-X-10-12-0-3-5-8--10-12-0-3-5-8------|

E--------------------------------------------------------------------|
B--------------------------------------------------------------------|
G--------------------------------------------------------------------|
D-x-x-x-10-12-0-3-5-8--10-12-0-3-5-8---------------------------------|
A-x-x-x-10-12-0-3-5-8--10-12-0-3-5-8---------------------------------|
D-x-x-x-10-12-0-3-5-8--10-12-0-3-5-8---------------------------------|
..Joy will come...

_________________________________________________

there for you

this is an acoustic version. i thought this was the actual verson but the 
the CD is different. but it shouldnt be that much different. most of the same stuff 
on in the cd version anyway. sorry about that**********

Tabbed by:
Email:

Tuning: Drop D (DADGBE)


Intro/Verse:
e|---------------------------------------------------- |
b|--5----5-3-----3-8-----8-7-----7-------------------- |
g|----0------0-------0-------0------|  <-------------- |
d|----------------------------------|               -- |
a|--3--3---2---2---7---7---5---5----|               -- |
d|----------------------------------|               -- |
                                                     |
                                                     |
e|---------------------------------------|          -- |
b|--5----5-3-----3-7-----7--8p7-----7----------------- | |    (go back to the beginning
g|----0------0-------0----------0--------------------- | |(x3) of this line when
d|---------------------------------------------------- |     you repeat.
a|--3--3---2---2---5---5----------5------------------- |     not this one)


Chorus:
e|----------------------------------------------------|
b|[Listen to the song to figure out the strum pattern]|
g|-5~-----------------44444444------------55555555----|{x2)
d|-5~---5-555--4-444--44444444--22222222--55555555----|
a|-3~---5-555--4-444--22222222--22222222--33333333----|
d|------5-555--4-444------------22222222--------------|

Second Verse : 0:56-1:14
e|---------------------------------------------------- |
b|--5----5-3-----3-8-----8-7-----7-------------------- |
g|----0------0-------0-------0------|  <-------------- |
d|----------------------------------|               -- |
a|--3--3---2---2---7---7---5---5----|               -- |
d|----------------------------------|               -- |
                                                     |
                                                     |
e|---------------------------------------|          -- |
b|--5----5-3-----3-7-----7--8p7-----7----------------- | |    (go back to the beginning
g|----0------0-------0----------0--------------------- | |(x2) of this line when
d|---------------------------------------------------- |     you repeat.
a|--3--3---2---2---5---5----------5------------------- |     not this one)


Second Chorus: 1:14-2:16
e|----------------------------------------------------|
b|[Listen to the song to figure out the strum pattern]|
g|-5~-----------------44444444------------55555555----|{x2)
d|-5~---5-555--4-444--44444444--22222222--55555555----|
a|-3~---5-555--4-444--22222222--22222222--33333333----|
d|------5-555--4-444------------22222222--------------|

e|----------------------------------------|
b|---[All the strums are down strokes]----|
g|------------444444----------55555555----|{x2)
d|--555--444--444444--222222--55555555----|
a|--555--444--222222--222222--33333333----|
d|--555--444----------222222--------------|

  *Electric guitar becomes dominant and heavy here"
e|--------------------------------|
b|[All strums are down strokes]---|
g|------------444444----555555----|
d|--555--444--444444----555555----|
a|--555--444--222222----333333----|
d|--555--444----------------------|
  "I wanna be there for you"

e|----------------------------------------|
b|-----[All strums are down strokes]------|
g|------------444444----------55555555----|
d|--555--444--444444--222222--55555555----|
a|--555--444--222222--222222--33333333----|
d|--555--444----------222222--------------|
  "and be someone you can come to"

e|----------------------------|
b|[All strums are down strokes]|
g|------------444444----5~----|
d|--555--444--444444----5~----|
a|--555--444--222222----3~----|
d|--555--444------------------|
  "The love runs deeper than my bones"

Outro: 2:16-End
e|--------------------------------------------|
b|--------------------------------------------|
g|------------------44444444------------------|
d|----5-555--4-444--44444444--22222222--4~----|
a|----5-555--4-444--22222222--22222222--5~----|
d|----5-555--4-444------------22222222--4~----|


thanx for every1s work, i dedicate this to emma and jenny, who also like this band and are cool
Related for Flyleaf tab
Flyleaf chords by Flyleaf