Song name
# A B C D E F G H I J K L M N O P Q R S T U V W X Y Z

Flyleaf - The Kind tab

Artist: Flyleaf
Title: The Kind
Album: Memento Mori

Tuning: (low to high) D A D G B E

Tabbed by: FireReaverX


Verse
E|-----------------------------------------------------------------|
B|-------1---------------0---------------1-----------------1-------|
G|-2---2-----2---2-2---2-----2---2-2---2-----2---2-2-------2-------|
D|-2-----------2---1-----------1---0-----------0---2-------2-------|  2x
A|-0-----------------------------------------------0-------0-------|
D|-----------------------------------------------------------------|


E|-----------------------------------------------------------------|
B|-----------------------------------------------------------------|
G|-9~--------------8~--------------5~-------------/12~-----12-14~--|
D|-----------------------------------------------------------------|
A|-----------------------------------------------------------------|
D|-----------------------------------------------------------------|
 |                                                                 |
E|-----------------------------------------------------------------|
B|-------1---------------0---------------1-----------------1-------|
G|-2---2-----2---2-2---2-----2---2-2---2-----2---2-2-------2-------|
D|-2-----------2---1-----------1---0-----------0---2-------2-------|
A|-0-----------------------------------------------0-------0-------|
D|-----------------------------------------------------------------|

Chorus
E|-------------------------------------------------------------------------|
B|------------12b13r12-----------------------------------------------------|
G|-9b10r9--------------12---12/14------------------10-10-10-9--9--9--9--9--|
D|--------7~----------------------12--7~----7~-----------------------------|
A|--------------------------------------------------8--8--8-7--7--7--7--7--|
D|-------------------------------------------------------------------------|
 |                                                                         |
E|-------------------------------------------------------------------------|
B|-------------------------------------------------------------------------|
G|-------------------------------------------------------------------------|
D|-7-7-7-7-7-7-7-7-6-6-6-6-6-6-6-6-3-3-3-3-3-3-3-3-10-10-10-10-10-10-10-10-|
A|-7-7-7-7-7-7-7-7-6-6-6-6-6-6-6-6-3-3-3-3-3-3-3-3-10-10-10-10-10-10-10-10-|
D|-7-7-7-7-7-7-7-7-6-6-6-6-6-6-6-6-3-3-3-3-3-3-3-3-10-10-10-10-10-10-10-10-|

Verse
E|-----------------------------------------------------------------|
B|-----------------------------------------------------------------|
G|-9~--------------8~--------------5~-------------/12~-------------|
D|-----------------------------------------------------------------|
A|-7~--------------------------------------------------------------|
D|-----------------------------------------------------------------|
 |                                                                 |
E|-----------------------------------------------------------------|
B|-------1---------------0---------------1-----------------1-------|
G|-2---2-----2---2-2---2-----2---2-2---2-----2---2-2-------2-------|
D|-2-----------2---1-----------1---0-----------0---2-------2-------|
A|-0-----------------------------------------------0-------0-------|
D|-----------------------------------------------------------------|


E|-----------------------------------------------------------------|
B|-----------------------------------------------------------------|
G|-9~--------------8~--------------5~-------------/12-14-14-12-14~-|
D|-----------------------------------------------------------------|
A|-----------------------------------------------------------------|
D|-----------------------------------------------------------------|
 |                                                                 |
E|-----------------------------------------------------------------|
B|-------1---------------0---------------1-----------------1-------|
G|-2---2-----2---2-2---2-----2---2-2---2-----2---2-2-------2-------|
D|-2-----------2---1-----------1---0-----------0---2-------2-------|
A|-0-----------------------------------------------0-------0-------|
D|-----------------------------------------------------------------|

Chorus
E|-------------------------------------------------------------------------|
B|------------12b13r12-----------------------------------------------------|
G|-9b10r9--------------12---12/14------------------10-10-10-9--9--9--9--9--|
D|--------7~----------------------12--7~----7~-----------------------------|
A|--------------------------------------------------8--8--8-7--7--7--7--7--|
D|-------------------------------------------------------------------------|
 |                                                                         |
E|-------------------------------------------------------------------------|
B|-------------------------------------------------------------------------|
G|-------------------------------------------------------------------------|
D|-7-7-7-7-7-7-7-7-6-6-6-6-6-6-6-6-3-3-3-3-3-3-3-3-10-10-10-10-10-10-10-10-|
A|-7-7-7-7-7-7-7-7-6-6-6-6-6-6-6-6-3-3-3-3-3-3-3-3-10-10-10-10-10-10-10-10-|
D|-7-7-7-7-7-7-7-7-6-6-6-6-6-6-6-6-3-3-3-3-3-3-3-3-10-10-10-10-10-10-10-10-|


E|-------------------------------------------------------------------------|
B|------------12b13r12-----------------------------------------------------|
G|-9b10r9--------------12---12/14------------------10-10-10-9--9--9--9--9--|
D|--------7~----------------------12--7~----7~-----------------------------|
A|--------------------------------------------------8--8--8-7--7--7--7--7--|
D|-------------------------------------------------------------------------|
 |                                                                         |
E|-------------------------------------------------------------------------|
B|-------------------------------------------------------------------------|
G|-------------------------------------------------------------------------|
D|-7-7-7-7-7-7-7-7-6-6-6-6-6-6-6-6-3-3-3-3-3-3-3-3-10-10-10-10-10-12-12-12-|
A|-7-7-7-7-7-7-7-7-6-6-6-6-6-6-6-6-3-3-3-3-3-3-3-3-10-10-10-10-10-12-12-12-|
D|-7-7-7-7-7-7-7-7-6-6-6-6-6-6-6-6-3-3-3-3-3-3-3-3-10-10-10-10-10-12-12-12-|

Bridge
E|-----------------------------------------------------------------|
B|-----------------------------------------------------------------|
G|-9~--------------------------------------------------------------|
D|-----------------------------------------------------------------|
A|-7~--------------------------------------------------------------|
D|-----------------------------------------------------------------|
 |                                                                 |
E|-----------------------------------------------------------------|
B|-1---------------1---------------1---------------3---------------|
G|-2---------------0---------------0---------------4---------------|
D|-2---------------3---------------2---------------5---------------|
A|-----------------------------------------------------------------|
D|-----------------------------------------------------------------|


E|-------------------------------------------------------------------------------------------------|
B|-------------------------------------------------------------------------------------------------|
G|-------------------------------------------------------------------------------------------------|
D|------14-/17-14--------14-/17-14---------------------14-/17-14--------14-/17-14---17-/19---------|
A|---12---------------12-------------17-15-15-\12---12---------------12--------------------17-15---|
D|-------------------------------------------------------------------------------------------------|
 |                                                                                       
         |
E|-------------------------------------------------------------------------------------------------|
B|-1----------------------1-----------------------1----------------------3-------------------------|
G|-2----------------------0-----------------------0----------------------4-------------------------|
D|-2----------------------3-----------------------2----------------------5-------------------------|
A|-------------------------------------------------------------------------------------------------|
D|-------------------------------------------------------------------------------------------------|


E|-------------------------------------------------------------------------------------------------|
B|--------------------------------------------------------------------------------------------20~--|
G|-----------------------------------------------------------------------------------------17------|
D|------14-/17-14--------14-/17-14---------------------14-/17-14--------14-/17-14---17-/19---------|
A|---12---------------12-------------17-15-15-\12---12---------------12----------------------------|
D|-------------------------------------------------------------------------------------------------|
 |                                                                                       
         |
E|-------------------------------------------------------------------------------------------------|
B|-1----------------------1-----------------------1----------------------3-------------------------|
G|-2----------------------0-----------------------0----------------------4-------------------------|
D|-2----------------------3-----------------------2----------------------5-------------------------|
A|-------------------------------------------------------------------------------------------------|
D|-------------------------------------------------------------------------------------------------|


E|-------------------------------------------------------------------------|
B|-1---------------1----------------1----------------------3---------------|
G|-2---------------0----------------0----------------------4---------------|
D|-2---------------3----------------2----------------------5---------------|
A|-------------------------------------------------------------------------|
D|-------------------------------------------------------------------------|
 |                                                                         |
E|-------------------------------------------------------------------------|
B|-------------------------------------------------------------------------|
G|-------------------------------------------------------------------------|
D|-7-7-7-7-7-7-7-7-3-3-3-3-3-3-3-3-10-10-10-10-10-10-10-10-5-5-5-5-5-5-5-5-|
A|-7-7-7-7-7-7-7-7-3-3-3-3-3-3-3-3-10-10-10-10-10-10-10-10-5-5-5-5-5-5-5-5-|
D|-7-7-7-7-7-7-7-7-3-3-3-3-3-3-3-3-10-10-10-10-10-10-10-10-5-5-5-5-5-5-5-5-|
PM . . . . . . . . . . . . . . . .  .  .  .  .  .  .  .  . . . . . . . . .

Chorus
E|-------------------------------------------------------------------------|
B|------------12b13r12-----------------------------------------------------|
G|-9b10r9--------------12---12/14------------------10-10-10-9--9--9--9--9--|
D|--------7~----------------------12--7~----7~-----------------------------|
A|--------------------------------------------------8--8--8-7--7--7--7--7--|
D|-------------------------------------------------------------------------|
 |                                                                         |
E|-------------------------------------------------------------------------|
B|-------------------------------------------------------------------------|
G|-------------------------------------------------------------------------|
D|-7-7-7-7-7-7-7-7-6-6-6-6-6-6-6-6-3-3-3-3-3-3-3-3-10-10-10-10-10-10-10-10-|
A|-7-7-7-7-7-7-7-7-6-6-6-6-6-6-6-6-3-3-3-3-3-3-3-3-10-10-10-10-10-10-10-10-|
D|-7-7-7-7-7-7-7-7-6-6-6-6-6-6-6-6-3-3-3-3-3-3-3-3-10-10-10-10-10-10-10-10-|


E|-------------------------------------------------------------------------|
B|------------12b13r12-----------------------------------------------------|
G|-9b10r9--------------12---12/14------------------10-10-10-9--9--9--9--9--|
D|--------7~----------------------12--7~----7~-----------------------------|
A|--------------------------------------------------8--8--8-7--7--7--7--7--|
D|-------------------------------------------------------------------------|
 |                                                                         |
E|-------------------------------------------------------------------------|
B|-------------------------------------------------------------------------|
G|-------------------------------------------------------------------------|
D|-7-7-7-7-7-7-7-7-6-6-6-6-6-6-6-6-3-3-3-3-3-3-3-3-10-10-10-10-10-12-12-12-|
A|-7-7-7-7-7-7-7-7-6-6-6-6-6-6-6-6-3-3-3-3-3-3-3-3-10-10-10-10-10-12-12-12-|
D|-7-7-7-7-7-7-7-7-6-6-6-6-6-6-6-6-3-3-3-3-3-3-3-3-10-10-10-10-10-12-12-12-|


E|-------------------------------------------------------------------------|
B|------------12b13r12-----------------------------------------------------|
G|-9b10r9--------------12---12/14------------------10-10-10-9--9--9--9--9--|
D|--------7~----------------------12--7~----7~-----------------------------|
A|--------------------------------------------------8--8--8-7--7--7--7--7--|
D|-------------------------------------------------------------------------|
 |                                                                         |
E|-------------------------------------------------------------------------|
B|-------------------------------------------------------------------------|
G|-------------------------------------------------------------------------|
D|-7-7-7-7-7-7-7-7-6-6-6-6-6-6-6-6-3-3-3-3-3-3-3-3-10-10-10-10-10-10-10-10-|
A|-7-7-7-7-7-7-7-7-6-6-6-6-6-6-6-6-3-3-3-3-3-3-3-3-10-10-10-10-10-10-10-10-|
D|-7-7-7-7-7-7-7-7-6-6-6-6-6-6-6-6-3-3-3-3-3-3-3-3-10-10-10-10-10-10-10-10-|


E|-------------------------------------------------------------------------|
B|------------12b13r12-----------------------------------------------------|
G|-9b10r9--------------12---12/14------------------10-10-10-9--9--9--9--9--|
D|--------7~----------------------12--7~----7~-----------------------------|
A|--------------------------------------------------8--8--8-7--7--7--7--7--|
D|-------------------------------------------------------------------------|
 |                                                                         |
E|-------------------------------------------------------------------------|
B|-------------------------------------------------------------------------|
G|-------------------------------------------------------------------------|
D|-7-7-7-7-7-7-7-7-6-6-6-6-6-6-6-6-3-3-3-3-3-3-3-3-10-10-10-10-10-12-12-12-|
A|-7-7-7-7-7-7-7-7-6-6-6-6-6-6-6-6-3-3-3-3-3-3-3-3-10-10-10-10-10-12-12-12-|
D|-7-7-7-7-7-7-7-7-6-6-6-6-6-6-6-6-3-3-3-3-3-3-3-3-10-10-10-10-10-12-12-12-|

Outro
E|-------------------------------------------------------------------------------------------------|
B|-------------------------------------------------------------------------10----------------------|
G|-14-14-14-14-14-14-14-14-17-17-17-17-17-17-17-17-12-12-12-12-12-12-12-12-12b14--------9~---------|
D|-------------------------------------------------------------------------------------------------|
A|-12-12-12-12-12-12-12-12-15-15-15-15-15-15-15-15-10-10-10-10-10-10-10-10-------------------------|
D|-------------------------------------------------------------------------------------------------|
 |                                                                                       
         |  2x
E|-------------------------------------------------------------------------------------------------|
B|-------------------------------------------------------------------------------------------------|
G|-------------------------------------------------------------------------------------------------|
D|--7--7--7--7--7--7--7--7--8--8--8--8--8--8--8--8--3--3--3--3--3--3--3--3--5--5--5--5--5--5--5--5-|
A|--7--7--7--7--7--7--7--7--8--8--8--8--8--8--8--8--3--3--3--3--3--3--3--3--5--5--5--5--5--5--5--5-|
D|--7--7--7--7--7--7--7--7--8--8--8--8--8--8--8--8--3--3--3--3--3--3--3--3--5--5--5--5--5--5--5--5-|


E|-------------------------------------------------------------------------------------------------|
B|-10---------------------(10)--------------------(10)--------------------(10)---------------------|
G|--9----------------------(9)---------------------(9)---------------------(9)---------------------|
D|--7----------------------(7)---------------------(7)---------------------(7)---------------------|
A|--7----------------------(7)---------------------(7)---------------------(7)---------------------|
D|--7----------------------(7)---------------------(7)---------------------(7)---------------------|
 |                                                                                       
         |
E|-------------------------------------------------------------------------------------------------|
B|-10---------------------(10)--------------------(10)--------------------(10)---------------------|
G|--9----------------------(9)---------------------(9)---------------------(9)---------------------|
D|--7----------------------(7)---------------------(7)---------------------(7)---------------------|
A|--7----------------------(7)---------------------(7)---------------------(7)---------------------|
D|--7----------------------(7)---------------------(7)---------------------(7)---------------------|

Note: For each connected staff, both guitar parts are being played simultaneously.

| PM palm mute
| /  slide up
| \  slide down
| h  hammer-on
| p  pull-off
| b  bend
| r  release bend
| ~  vibrato
| () hold note
=================================================================================
Tap to rate this tab
# A B C D E F G H I J K L M N O P Q R S T U V W X Y Z