Song name
# A B C D E F G H I J K L M N O P Q R S T U V W X Y Z

Flyleaf - Treasure chords

Artist: Flyleaf
Title: Treasure
Album: Memento Mori

Tuning: (low to high) D A D G B E

Tabbed by: FireReaverX


Intro
E|---------0---------------0-------------------------------------------|
B|-------8---8-----------8---8-------------8---------11-11-11-11-8-8-8-|
G|-----9-------9-------9-------9---------9---9-------------------------|
D|---9-----------9---9-----------9-----9-------9------8--8--8--8-5-5-5-|
A|-7---------------7-----------------7-----------7---------------------|
D|---------------------------------7---------------7-------------------|

E|---------0---------------0-------------------------------------------|
B|-------8---8-----------8---8-------------8---------8-8-----8-8-------|
G|-----9-------9-------9-------9---------9---9-------9-9-----9-9-------|
D|---9-----------9---9-----------9-----9-------9-----9-9-----9-9-------|
A|-7---------------7-----------------7-----------7---7-7-----7-7-------|
D|---------------------------------7---------------7-------7-----------|


First Chorus
E|-------------------------------------------------------------------------|
B|-----5--/-----7--\-----1p0-------3-------5--/-----7--\-----1p0-----------|
G|---------------------------------------------------------------2p0-------|
D|-------------------------------------------------------------------------|
A|-3-----3/-5-----5\-0-------0-2-----2-3-----3/-5-----5\-0-----------0-----|
D|-------------------------------------------------------------------------|


Verse
  (Guitar 1)
E|-------------------------------------|
B|-----5--/-----7--\-----1p0-------3---|
G|-------------------------------------|
D|-------------------------------------|
A|-3-----3/-5-----5\-0-------0-2-----2-|
D|-------------------------------------|
 |                                     |
 |(Guitar 2)                           |
E|-------------------5--------10-------|
B|-3/5------7--------------------------|
G|-------------------------------------|
D|-------------------------------------|
A|-------------------------------------|
D|-------------------------------------|

E|-------------------------------------0--------------------------------|
B|-----5--/-----7--\-----1p0-----------1--------------------------------|
G|---------------------------2p0-------2--------------------------------|
D|-------------------------------------2--------------------------------|
A|-3-----3/-5-----5\-0-----------0-----0--------------------------------|
D|----------------------------------------------------------------------|
 |                                                                      |
E|-----------------5-5-5-5---------10---10---10---10--------------------|
B|-3/5-7-8-7-7-7-7---------5-5-5-5----8----8----8----8-10---10b-r-b-r---|
G|----------------------------------------------------------------------|
D|----------------------------------------------------------------------|
A|----------------------------------------------------------------------|
D|----------------------------------------------------------------------|


Chorus
E|--------------------------------------------------------------------------------------------|
B|--------------------------------------------------------------------------------------------|
G|--------------------------------------------------------------------------------------------|
D|-10-10-10----0-0-0----7--7--7--7--9--9--9--9--10-10-10----0-0-0-----------------------------|
A|-10-10-10----0-0-0----7--7--7--7--9--9--9--9--10-10-10----0-0-0-----------------------------|
D|-10-10-10----0-0-0----7--7--7--7--9--9--9--9--10-10-10----0-0-0----5h7-5h7---5h7-10-7--b-r7-|
 |                                                                                       
    |
E|-10---7-8-----------7-8-7--------------7-8-7----10-10------12--12--12--12--10--10--12--12---|
B|----------10---8-10-------10-10---8-10-------10-------10-----10--10--10--10--10--10--10-----|
G|--------------------------------------------------------------------------------------------|
D|--------------------------------------------------------------------------------------------|
A|--------------------------------------------------------------------------------------------|
D|--------------------------------------------------------------------------------------------|

E|--------------------------------------------------------------------------------------------|
B|--------------------------------------------------------------------------------------------|
G|--------------------------------------------------------------------------------------------|
D|-10-10-10----0-0-0----7--7--7--7--9--9--9--9--10-10-10----0-0-0----7------------------------|
A|-10-10-10----0-0-0----7--7--7--7--9--9--9--9--10-10-10----0-0-0----7------------------------|
D|-10-10-10----0-0-0----7--7--7--7--9--9--9--9--10-10-10----0-0-0----7------------------------|
 |                                                                                       
    |
E|-10---7-8-----------7-8-7--------------7-8-7----10-10------12-------------------------------|
B|----------10---8-10-------10-10---8-10-------10-------10------------------------------------|
G|--------------------------------------------------------------------------------------------|
D|--------------------------------------------------------------------------------------------|
A|--------------------------------------------------------------------------------------------|
D|--------------------------------------------------------------------------------------------|


Verse


Bridge
E|---------------------------------------------------------------------|
B|---------------------------------------------------11-11-11-11-8-8-8-|
G|---------------------------------------------------------------------|
D|----------------------------------------------------8--8--8--8-5-5-5-|
A|---------------------------------------------------------------------|
D|-2-2-2-2-2-2-2-2-5-5-5-5-5-5-5-5-7-7-7-7-7-7-7-7-8-------------------|
PM . . . . . . . . . . . . . . . . . . . . . . . . .

E|-----------------------------------------------------------------|
B|-----------------------------------------------------------------|
G|-----------------------------------------------------------------|
D|---------------------------------------------------8-8-8-8-8-8-8-|
A|---------------------------------------------------8-8-8-8-8-8-8-|
D|-2-2-2-2-2-2-2-2-5-5-5-5-5-5-5-5-7-7-7-7-7-7-7-7-8-8-8-8-8-8-8-8-|
PM . . . . . . . . . . . . . . . . . . . . . . . . .

E|-------------------------------------------------------------------------------------------------|
B|-------------------------------------------------------------------------------------------------|
G|-------------------------------------------------------------------------------------------------|
D|-2-2-2-2-2-2-2-2-5-5-5-5-5-5-5-5-7-7-7-7-7-7-7-7-8-8-8-8-5-5-5-5---------------------------------|
A|-2-2-2-2-2-2-2-2-5-5-5-5-5-5-5-5-7-7-7-7-7-7-7-7-8-8-8-8-5-5-5-5---------------------------------|
D|-2-2-2-2-2-2-2-2-5-5-5-5-5-5-5-5-7-7-7-7-7-7-7-7-8-8-8-8-5-5-5-5---------------------------------|
 |                                                                                       
         |
E|-10-10-10-10-10----12-12-12----------------------10-10-10-10-10----12-12-12----------------------|
B|----------------10----------10-10-10-12-12-12-12----------------10----------10-10-10-12-12-12-12-|
G|-------------------------------------------------------------------------------------------------|
D|-------------------------------------------------------------------------------------------------|
A|-------------------------------------------------------------------------------------------------|
D|-------------------------------------------------------------------------------------------------|

E|-------------------------------------------------------------------------------------------------|
B|-------------------------------------------------------------------------------------------------|
G|-------------------------------------------------------------------------------------------------|
D|-------------------------------------------------------------------------------------------------|
A|-2222222222222222555555555555555577777777777777777777777777777777--------------------------------|
D|-2222222222222222555555555555555577777777777777777777777777777777--------------------------------|
PM ................................................................                      
         |
 |                                                                                       
         |
E|-10-10-10-10-10----12-12-12-12-12----------------10-10-10-10-10----12-12-12-12-12----------------|
B|----------------10----------------10-12-12-12-12----------------10----------------10-12-12-12-12-|
G|-------------------------------------------------------------------------------------------------|
D|-------------------------------------------------------------------------------------------------|
A|-------------------------------------------------------------------------------------------------|
D|-------------------------------------------------------------------------------------------------|


Chorus 2x


Note: For each connected staff, both guitar parts are meant to be played simultaneously. 
spacing I used to indicate timing is not accurate between the two guitars.

| PM palm mute
| /  slide up
| \  slide down
| h  hammer-on
| p  pull-off
| b  bend
| r  release bend
=================================================================================
Tap to rate this tab
# A B C D E F G H I J K L M N O P Q R S T U V W X Y Z