Song name
# A B C D E F G H I J K L M N O P Q R S T U V W X Y Z

Flyleaf - There For You tab

Song - There For You
Artist - Flyleaf
Tempo - 78 BPM
Tuning - Drop D (D,A,D,G,B,E)
Time Signature - 6
                 8

Guitar 1 (Clean)

                                 |-3-|                                        
      E  S S E  E  S S  E     E  S S S E  E  S S S S    E  S S E  E  S S  E   
E||------------------------|-------------------------|-----------------------|
B||---5------5--3-------3--|--8------8-7--7------5---|--5------5--3-------5--|
G||*-----0---------0-------|-------0---------0-----0-|-----0---------0-------|
D||*-----------------------|-------------------------|-----------------------|
A||---3----3----2----2s----|--7--7--------5----5-----|--3----3----2----2s----|
D||------------------------|-------------------------|-----------------------|


  E  S S S S S  S S S S S  3x  H.              Q.     Q.      
---------------------------||---------------|--3------2------|
--7------7---8p-7-----5----||--3------------|----------------|
-----0-----0------0-----0-*||---------------|----------------|
--------------------------*||---------------|----------------|
--5----5------------5------||---------------|----------------|
---------------------------||---------------|----------------|


  E  E  E  E  E  E     H.              E  E  E  E  E  E     E  E  E  E  E  E   
--0--------0--------|---------------|--3--------5--------|--3--------2--------|
-----3--------3-----|--3------------|-----3--------3-----|-----3--------3-----|
--------0--------0--|---------------|--------4--------4--|--------4--------4--|
--------------------|---------------|--------------------|--------------------|
--------------------|---------------|--------------------|--------------------|
--------------------|---------------|--------------------|--------------------|


  E  E  E  E  E  E     H.              Q.     Q.        H.            
--0--------0--------|---------------|--3------2------|--3------------|
-----3--------3-----|--3------------|----------------|---------------|
--------0--------0--|---------------|----------------|---------------|
--------------------|---------------|----------------|---------------|
--------------------|---------------|----------------|---------------|
--------------------|---------------|----------------|---------------|


                                             |-3-|                
  H.              E  S S E  E  S S  E     E  S S S E  E  S S S S  
--L------------|-----------------------|-------------------------|
---------------|--5------5--3-------3--|--8------8-7--7------5---|
---------------|-----0---------0-------|-------0---------0-----0-|
---------------|-----------------------|-------------------------|
---------------|--3----3----2----2s----|--7--7--------5----5-----|
---------------|-----------------------|-------------------------|


  E  S S E  E  S S  E     E  S S S S S  S S S S S    E  S S E  E  S S  E   
-----------------------|--------------------------|-----------------------|
--5------5--3-------5--|--7------7---8p-7-----5---|--5------5--3-------3--|
-----0---------0-------|-----0-----0------0-----0-|-----0---------0-------|
-----------------------|--------------------------|-----------------------|
--3----3----2----2s----|--5----5------------5-----|--3----3----2----2s----|
-----------------------|--------------------------|-----------------------|


     |-3-|                                                                   
  E  S S S E  E  S S S S    E  S S E  E  S S  E     E  S S S S S  S S S S S  
-------------------------|-----------------------|--------------------------|
--8------8-7--7------5---|--5------5--3-------5--|--7------7---8p-7-----5---|
-------0---------0-----0-|-----0---------0-------|-----0-----0------0-----0-|
-------------------------|-----------------------|--------------------------|
--7--7--------5----5-----|--3----3----2----2s----|--5----5------------5-----|
-------------------------|-----------------------|--------------------------|


  H.              Q.     Q.        E  E  E  E  E  E     H.            
---------------|--3------2------|--0--------0--------|---------------|
--3------------|----------------|-----3--------3-----|--3------------|
---------------|----------------|--------0--------0--|---------------|
---------------|----------------|--------------------|---------------|
---------------|----------------|--------------------|---------------|
---------------|----------------|--------------------|---------------|


  E  E  E  E  E  E     E  E  E  E  E  E     E  E  E  E  E  E     H.            
--3--------5--------|--3--------2--------|--0--------0--------|---------------|
-----3--------3-----|-----3--------3-----|-----3--------3-----|--3------------|
--------4--------4--|--------4--------4--|--------0--------0--|---------------|
--------------------|--------------------|--------------------|---------------|
--------------------|--------------------|--------------------|---------------|
--------------------|--------------------|--------------------|---------------|


  Q.     Q.        H.              S S S S S S S S S S S S  
--3------2------|--3------------|--3-----3-----3-----8-7-8-|
----------------|---------------|----3-3---3-3---3-3-------|
----------------|---------------|--------------------------|
----------------|---------------|--------------------------|
----------------|---------------|--------------------------|
----------------|---------------|--------------------------|


  S S S S S S S  S S S S S    S S S S S S S S S S S S    S S S S S S S S S E.   
--3-----3-----8-10-5-8-7-5-|--3-----3-----3-----2-----|--3-----3-----3-2-5-7---|
----3-3---3-3--------------|----3-3---3-3---3-3---3-3-|----3-3---3-3-----------|
---------------------------|--------------------------|------------------------|
---------------------------|--------------------------|------------------------|
---------------------------|--------------------------|------------------------|
---------------------------|--------------------------|------------------------|


  S S S S S S S S S S S S    S S E  S S S S E  S S    S S E  S S S S E  S S  
--3-----3-----3-----3-----|--3-5-5--5-5-5-3-3--3-3-|------------------------|
----3-3---3-3---3-3---3-3-|------------------------|--1-3-3--3-3-3-0-0--0-0-|
--------------------------|------------------------|------------------------|
--------------------------|------------------------|------------------------|
--------------------------|------------------------|------------------------|
--------------------------|------------------------|------------------------|


  S S E  S S E  S S E     S S S S S S S S S S S S    S S S S S S S S S S S S  
-----------------------|--3-5-5-5-5-5-5-3-3-3-3-3-|--------------------------|
-----------------------|--------------------------|--1-3-3-3-3-3-3-0-0-0-0-0-|
--2-4-4--4-4-4--4-4-4--|--------------------------|--------------------------|
-----------------------|--------------------------|--------------------------|
-----------------------|--------------------------|--------------------------|
-----------------------|--------------------------|--------------------------|


  S S E  S S E  S S S S    H.              Q.     Q.        E  E  E  E  E  E   
------------------------|---------------|--3------2------|--0--------0--------|
------------------------|---------------|----------------|-----3--------3-----|
--2-4-4--4-4-4--4-4-4-4-|---------------|----------------|--------0--------0--|
------------------------|---------------|----------------|--------------------|
------------------------|---------------|----------------|--------------------|
------------------------|---------------|----------------|--------------------|


  H.              E  E  E  E  E  E     H.              E  E  E  E  E  E   
---------------|--3--------5--------|---------------|--0--------0--------|
--3------------|-----3--------3-----|---------------|-----3--------3-----|
---------------|--------4--------4--|---------------|--------0--------0--|
---------------|--------------------|---------------|--------------------|
---------------|--------------------|---------------|--------------------|
---------------|--------------------|---------------|--------------------|


  E  E  E  E  E  E     E  E  E  E  E  E     E  E  E  E  E  E   
--0--------0--------|--0--------0--------|--3--------5--------|
-----3--------3-----|-----3--------3-----|-----3--------3-----|
--------0--------0--|--------0--------0--|--------4--------4--|
--------------------|--------------------|--------------------|
--------------------|--------------------|--------------------|
--------------------|--------------------|--------------------|


  E  E  E  E  E  E     E  E  E  E  E  E     E  E  E  E  E  E   
--0--------0--------|--0--------0--------|--0--------0--------|
-----3--------3-----|-----3--------3-----|-----3--------3-----|
--------0--------0--|--------0--------0--|--------0--------0--|
--------------------|--------------------|--------------------|
--------------------|--------------------|--------------------|
--------------------|--------------------|--------------------|


  E  E  E  E  E  E     E  E  E  E  E  E     H.             
--3--------5--------|--0--------0--------|---------------||
-----3--------3-----|-----3--------3-----|---------------||
--------4--------4--|--------0--------0--|---------------||
--------------------|--------------------|---------------||
--------------------|--------------------|---------------||
--------------------|--------------------|---------------||




Duration Legend
---------------
W - whole
H - half
Q - quarter
E - 8th
S - 16th
T - 32nd
X - 64th
. - note dotted
|-n-|  - n-tuplets


Tablature Legend
----------------
L - tied note
h - hammer on
p - pull off
s - legato slide
Tap to rate this tab
# A B C D E F G H I J K L M N O P Q R S T U V W X Y Z