Song name
# A B C D E F G H I J K L M N O P Q R S T U V W X Y Z

Flyleaf - This Close tab

Artist: Flyleaf
Title: This Close
Album: Memento Mori

Tuning: (low to high) Db Ab Db Gb Bb Eb

Tabbed by: FireReaverX


Intro
Eb|---------------------------------------------|
Bb|-13b14r13------------------------16\13-------|
Gb|----------12b13r12------13/15-15-------------|
Db|-------------------13------------------------|
Ab|---------------------------------------------|
Db|---------------------------------------------|
  |                                             |
Eb|---------------------------------------------|
Bb|---------------------------------------------|
Gb|-----------------4---4-----------------------|
Db|-0---0---0-2-3---4---4---0-2-4---------------|
Ab|-0---0---0-2-3---2---2---0-2-4---------------|
Db|-0---0---0-2-3-----------0-2-4---------------|

                                                   2x
Eb|---------------------------------------------|
Bb|-13b14r13------------------------------------|
Gb|----------12b13r12---------------------------|
Db|-------------------13------------------------|
Ab|----------------------------13---13/15-------|
Db|---------------------------------------------|
  |                                             |
Eb|---------------------------------------------|
Bb|---------------------------------------------|
Gb|-----------------4---4-----------------------|
Db|-0---0---0-2-3---4---4---0-2-4---------------|
Ab|-0---0---0-2-3---2---2---0-2-4---------------|
Db|-0---0---0-2-3-----------0-2-4---------------|



Verse
Eb|----------------------------------------------------------------------|
Bb|----------------------------------------------------------------------|
Gb|-14---------------9----------------14---------------9-----------------|
Db|-12-------3-------7---------7-9b---12-------3-------7---------7-9b----|
Ab|-12-------3-------7-------7--------12-------3-------7-------7---------|
Db|-12-------3-------7----------------12-------3-------7-----------------|


Eb|----------------------------------|
Bb|----------------------------------|
Gb|-----------------6-------11-------|
Db|---------7------------------------|
Ab|----------------------------------|
Db|----------------------------------|



Pre-Chorus
Eb|--------------------------------------------------------------------|
Bb|--------------------------------------------------------------------|
Gb|--------------------------------------------------------------------|
Db|-0-0-0-0-0-0-0-0-3-3-3-3-3-3-3-3-4-4-4-4-4-4-4-4-2-2-2-2-2-2-2-2----|
Ab|-0-0-0-0-0-0-0-0-3-3-3-3-3-3-3-3-4-4-4-4-4-4-4-4-2-2-2-2-2-2-2-2----|
Db|-0-0-0-0-0-0-0-0-3-3-3-3-3-3-3-3-4-4-4-4-4-4-4-4-2-2-2-2-2-2-2-2----|
PM  . . . . . . . . . . . . . . . . . . . . . . . . . . . . . . . .


Eb|---------------------------------|
Bb|---------------------------------|
Gb|---------------------------------|
Db|-0-0-0-0-0-0-0-0-3---------------|
Ab|-0-0-0-0-0-0-0-0-3---------------|
Db|-0-0-0-0-0-0-0-0-3---------------|
PM  . . . . . . . .



Chorus
Eb|-------------------------------------------------------------------------|
Bb|-13b14r13------------------------16-13-----------------------------------|
Gb|----------12b13r12------13/15-15---------------16-------16-------16------|
Db|-------------------13-----------------------------14-14----14-14----14---|
Ab|-------------------------------------------------------------------------|
Db|-------------------------------------------------------------------------|
  |                                                                         |  
Eb|-------------------------------------------------------------------------|
Bb|-------------------------------------------------------------------------|
Gb|-------------------------------------------------13-13-13-13-12-12-12-12-|
Db|-7-7-7-7-7-7-7-7-7-7-7-7-7-7-7-7-0-0-0-0-0-0-0-0-------------------------|
Ab|-7-7-7-7-7-7-7-7-7-7-7-7-7-7-7-7-0-0-0-0-0-0-0-0-11-11-11-11-10-10-10-10-|
Db|-7-7-7-7-7-7-7-7-7-7-7-7-7-7-7-7-0-0-0-0-0-0-0-0-------------------------|


Eb|--------------------------------------------------------------------------------|
Bb|-17-------17-------17----15-------15-------15----------------------------17tr---|
Gb|----14-14----14-14----14----14-14----14-14----14-16-------16-------16-----------|
Db|----------------------------------------------------14-14----14-14----14--------|
Ab|--------------------------------------------------------------------------------|
Db|--------------------------------------------------------------------------------|
  |                                                                                |
Eb|--------------------------------------------------------------------------------|
Bb|--------------------------------------------------------------------------------|
Gb|--------------------------------------------------------------------------------|
Db|-11-11-11-11-11-11-11-11------------------------2-2-2-2-2-2-2-2-2-2-2-2-2-2-2-2-|
Ab|-11-11-11-11-11-11-11-11-12-11------------------2-2-2-2-2-2-2-2-2-2-2-2-2-2-2-2-|
Db|-11-11-11-11-11-11-11-11-------14-11~------11---2-2-2-2-2-2-2-2-2-2-2-2-2-2-2-2-|


Eb|-------------------------------------------------------------------------|
Bb|-13b14r13------------------------16-13-----------------------------------|
Gb|----------12b13r12------13/15-15---------------16-------16-------16------|
Db|-------------------13-----------------------------14-14----14-14----14---|
Ab|-------------------------------------------------------------------------|
Db|-------------------------------------------------------------------------|
  |                                                                         |
Eb|-------------------------------------------------------------------------|
Bb|-------------------------------------------------------------------------|
Gb|-------------------------------------------------13-13-13-13-12-12-12-12-|
Db|-7-7-7-7-7-7-7-7-7-7-7-7-7-7-7-7-0-0-0-0-0-0-0-0-------------------------|
Ab|-7-7-7-7-7-7-7-7-7-7-7-7-7-7-7-7-0-0-0-0-0-0-0-0-11-11-11-11-10-10-10-10-|
Db|-7-7-7-7-7-7-7-7-7-7-7-7-7-7-7-7-0-0-0-0-0-0-0-0-------------------------|


Eb|-----------------------------------------------------------------|
Bb|-17-------17-------17----15-------15-------15--------------------|
Gb|----14-14----14-14----14----14-14----14-14----14-16b-------------|
Db|-----------------------------------------------------------------|
Ab|-----------------------------------------------------------------|
Db|-----------------------------------------------------------------|
  |                                                                 |
Eb|-----------------------------------------------------------------|
Bb|-----------------------------------------------------------------|
Gb|-----------------------------------------------------------------|
Db|-4-4-4-4-4-4-4-4-2-2-2-2-2-2-2-2-3-3-3-3-3-3-3-3-3-3-3-3-3-3-3-3-|
Ab|-4-4-4-4-4-4-4-4-2-2-2-2-2-2-2-2-3-3-3-3-3-3-3-3-3-3-3-3-3-3-3-3-|
Db|-4-4-4-4-4-4-4-4-2-2-2-2-2-2-2-2-3-3-3-3-3-3-3-3-3-3-3-3-3-3-3-3-|



Pre-Verse
Verse
Pre-Chorus
Chorus



Bridge (Pre-Chorus; drums and bass only)



Chorus
Pre-Verse
Chorus



Note: For each connected staff, both guitar parts are meant to be played simultaneously.
The upper staff is lead guitar (Sameer) and the lower staff is rhythm guitar (Jared). 
The spacing I used to indicate timing is not always consistent between the two guitars. 




| /  slide up
| \  slide down
| b  bend
| h  hammer-on
| p  pull-off
| tr tremolo pick
| ~  vibrato
===============================================================================
Tap to rate this tab
# A B C D E F G H I J K L M N O P Q R S T U V W X Y Z