Song name
# A B C D E F G H I J K L M N O P Q R S T U V W X Y Z

Flyleaf - Justice And Mercy Acoustic tab

----------------------------------------------------------------------------
		   Justice and Mercy (Acoustic) - Flyleaf
----------------------------------------------------------------------------
Tabbed by: Elizabeth R.

This is my first tab ever, so I am really sorry if I made any technical mistakes or anything. 
This is mostly just for beginners, like me, who want a basic version of the acoustic/live song. 

Tuning: Drop D

Intro:
e|------------------------------------------------------|
B|------------------------------------------------------|
G|---------8--------------------------------------------| x7
D|----8--8---8---8--------------------------------------|
A|--6----------6---6------------------------------------|
D|------------------------------------------------------|

Verse:
e|------------------------------------------|
B|------------------------------------------|
G|---------8--------------------8-----------|
D|----8--8----8-----8-----8--8-----8-----8--|
A|--6------------6-----6--------------6-----|
D|------------------------------------------|
   We cant      be   oblivious

e|--------------------------------------|
B|--------------------------------------|
G|---------8-----------------8----------|
D|----8--8----8-----8---8--8---8---8----|
A|--5-------------5---5----------5---5--|
D|--------------------------------------|
   We are    not    ignorant            

e|---------------------------------------------------------------|
B|---------------------------------------------------------------|
G|--------8--------------8-------------8--------------8----------|
D|------8---8----8-----8---8---8-----8---8---8------8---8---8----|
A|----8-------8------8-------8-----6-------6------6-------6------| 
D|--8--------------8-------------6--------------6----------------|
   Blood in our hearts           Blood on our hands

e|-----------------------------------------------|
B|-----------------------------------------------|
G|---------8-------------------------8-----------|
D|----8--8----8-----8----------8--8-----8-----8--|
A|--6------------6----------5--------------5-----|
D|-----------------------------------------------|
  Were human...      were breathing...

e|----------------------------------|
B|----------------------------------|
G|--------8---------------8---------|
D|------8---8---8-------8---8---8---|
A|----8-------8-------6-------6-----| 
D|--8---------------6---------------|
  Were living...   Surviving...

e|-------------------------------------------------x-x---------|
B|-------------------------------------------------x-x---------|
G|-------------------------------------------------x-x---------|
D|--8-8-8-8-8-8-8-8-8-8-8-8-8-8-8-8-8--5-5-5-5-5-5-5-5---------|
A|--8-8-8-8-8-8-8-8-8-8-8-8-8-8-8-8-8--5-5-5-5-5-5-5-5---------|
D|--8-8-8-8-8-8-8-8-8-8-8-8-8-8-8-8-8--5-5-5-5-5-5-5-5---------|
   To breathe in safety, come home safely

Chorus:
e|--------------------------------------------------------|
B|--------------------------------------------------------|
G|--------------------------------------------------------|
D|--13-13-13-13---8-8-8-8-8-8--5-5-5-5-5-5-5-5-5----------| (x2)
A|--13-13-13-13---8-8-8-8-8-8--5-5-5-5-5-5-5-5-5----------|
D|--13-13-13-13---8-8-8-8-8-8--5-5-5-5-5-5-5-5-5----------|
  
e|-------------------------------|
B|-------------------------------|
G|-------------------------------|
D|--10-10-10-10-10-10-8-8-8-8----|
A|--10-10-10-10-10-10-8-8-8-8----|
D|--10-10-10-10-10-10-8-8-8-8----|
   This is where they kiss

Repeat verse (with different lyrics obviously)
Repeat chorus

Bridge:
e|--------------|---------------------|----------------|
B|--------------|---------------------|----------------|
G|--------------|---------------------|----------------|
D|--3-3-3-6-6-6-|-3-3-3-3-6-6-6-------|-3-3-3-3-3-/-8--|
A|--3-3-3-6-6-6-|-3-3-3-3-6-6-6-------|-3-3-3-3-3-/-8--|
D|--3-3-3-6-6-6-|-3-3-3-3-6-6-6-------|-3-3-3-3-3-/-6--|
  Bridge intro                   (x5)  consume or refine

Chorus:
e|--------------------------------------------------------|
B|--------------------------------------------------------|
G|--------------------------------------------------------|
D|--13-13-13-13---8-8-8-8-8-8--5-5-5-5-5-5-5-5-5----------| (x2)
A|--13-13-13-13---8-8-8-8-8-8--5-5-5-5-5-5-5-5-5----------|
D|--13-13-13-13---8-8-8-8-8-8--5-5-5-5-5-5-5-5-5----------|
  
e|-------------------------------|
B|-------------------------------|
G|-------------------------------|
D|--10-10-10-10-10-10-8-8-8-8----|
A|--10-10-10-10-10-10-8-8-8-8----|
D|--10-10-10-10-10-10-8-8-8-8----|
   This is where they kiss


Outro:
e|--------------|
B|--------------|
G|--------------|
D|-----6-6-6----|
A|-----6-6-6----|
D|-----8-8-8----|


************************************

| /   slide up
| \   slide down
| h   hammer-on
| p   pull-off
| ~   vibrato
| +   harmonic
| x   Mute note
| b   Bend
| pb  Pre-bend
| br  Bend release
| pbr Pre-bend release
| brb Bend release bend

************************************
Tap to rate this tab
# A B C D E F G H I J K L M N O P Q R S T U V W X Y Z