Song name
# A B C D E F G H I J K L M N O P Q R S T U V W X Y Z

Flyleaf - Fully Alive Acoustic tab

----------------------------------------------------------------------------
Fully Alive (Acoustic) - Flyleaf
----------------------------------------------------------------------------

Tabbed by: Elizabeth R.

This song is off of the 2007 release of the Flyleaf album. Listen to the song for correct timing. 
I have not done many tabs, so sorry if I made any mistakes. 
If you find any, please suggest corrections below. Hope you enjoy it =)

Tuning: Drop D


Intro: Palm mute
e|---------------------------|
B|---------------------------|
G|--------------------0---0--| 
D|----7-7-7-7-7-7-7-7-7-7-7--|{pm}
A|----5-5-5-5-5-5-5-5-5-5-5--|
E|---------------------------|
   PM--------------------->

Verse: Palm mute
e|-------------------------------|
B|-------------------------------|{pm}
G|-------------------------------|
D|--7-7-7-7-7-5-5-5-5-5-3-3-3-3--| 
A|--5-5-5-5-5-3-3-3-3-3-1-1-1-1--| 
E|-------------------------------|
  PM----------------------->
  Telling...

e|-------------------------------|
B|-------------------------------|{pm}
G|-------------------------------|
D|--7-7-7-7-7-5-5-5-5-5-3-3-3-3--| 
A|--5-5-5-5-5-3-3-3-3-3-1-1-1-1--| 
E|-------------------------------|
  PM--------------------->
  About...

e|-------------------------------|
B|-------------------------------|
G|-------------------------------|
D|--7-7-7-7-10-10-10-10-3-3-3-3--| {pm}
A|--5-5-5-5-8--8--8--8--1-1-1-1--|
E|-------------------------------|
  PM--------------------->
  Hammers...

e|-------------------------------|
B|-------------------------------| {pm}
G|-------------------------------|
D|--7-7-7-7-7-5-5-5-5-5-3-3-3-3--|
A|--5-5-5-5-5-3-3-3-3-3-1-1-1-1--|
E|-------------------------------|
   PM--------------------->
Two...

  Chorus:
e|---------------------------------|
B|---------------------------------|
G|--7-7-7-7-10-10-10-12-12-12-12-12| (x2)
D|--7-7-7-7-10-10-10-12-12-12-12-10|
A|--5-5-5-5-8--8 -8 -10-10-10-10-10|
E|---------------------------------|


Verse: Palm mute
e|-------------------------------|
B|-------------------------------|{pm}
G|-------------------------------|
D|--7-7-7-7-7-5-5-5-5-5-3-3-3-3--|
A|--5-5-5-5-5-3-3-3-3-3-1-1-1-1--|
E|-------------------------------|
  PM--------------------->
  All...

e|-------------------------------|
B|-------------------------------|{pm}
G|-------------------------------|
D|--7-7-7-7-7-5-5-5-5-5-3-3-3-3--|
A|--5-5-5-5-5-3-3-3-3-3-1-1-1-1--|
E|-------------------------------|
  PM--------------------->
  Im...

e|-------------------------------|
B|-------------------------------|
G|-------------------------------|
D|--7-7-7-7-10-10-10-10-3-3-3-3--| {pm}
A|--5-5-5-5-8--8--8--8--1-1-1-1--|
E|-------------------------------|
  PM--------------------->
  Shes...

e|-------------------------------|
B|-------------------------------| {pm}
G|-------------------------------|
D|--7-7-7-7-7-5-5-5-5-5-3-3-3-3--|
A|--5-5-5-5-5-3-3-3-3-3-1-1-1-1--|
E|-------------------------------|
   PM--------------------->
  Only...
 
 Chorus:
e|---------------------------------|
B|---------------------------------|
G|--7-7-7-7-10-10-10-12-12-12-12-12| (x2)
D|--7-7-7-7-10-10-10-12-12-12-12-10|
A|--5-5-5-5-8 -8 -8--10-10-10-10-10|
E|---------------------------------|
  
Bridge: 
e|--8---5---8---3-----------------|
B|--8---5---8---3-----------------|
G|--10--7---10--5-----------------| (x2)
D|--10--7---10--5-----------------|
A|--8---5---8---3-----------------|
E|--8---5---8---3-----------------|
  Here...

  Chorus:
e|---------------------------------|
B|---------------------------------|
G|--7-7-7-7-10-10-10-12-12-12-12-12| (x2)
D|--7-7-7-7-10-10-10-12-12-12-12-10|
A|--5-5-5-5-8 -8 -8--10-10-10-10-10|
E|---------------------------------|

   Repeat chorus

Outro: Palm mute
e|-------------|
B|-------------|
G|-------------| 
D|----7-7-7-7--| {pm}
A|----5-5-5-5--|
E|-------------|
  PM-------->

************************************

| /   slide up
| \   slide down
| h   hammer-on
| p   pull-off
| ~   vibrato
| +   harmonic
| x   Mute note
| PM  Palm mute
| b   Bend
| pb  Pre-bend
| br  Bend release
| pbr Pre-bend release
| brb Bend release bend

************************************

Tap to rate this tab
 
# A B C D E F G H I J K L M N O P Q R S T U V W X Y Z