Song name
# A B C D E F G H I J K L M N O P Q R S T U V W X Y Z

Flyleaf - Supernatural Acoustic tab

Hey, not sure if this is 100% accurate, but please feel free to correct me
if I have it wrong, as I would very much like to learn the correct version
of this song. (I'm sorry if the lyrics placement isn't making any sense.
Try looking at the words in relation to the chords played, and hopefully
you'll get the idea.

Verse 1:

  Her headaches, are      | day...
  constant, increasing in |
  pain, with each passing |
e|---------------------------------------------------------------------|
B|-5-5-5-5-5-5-5-5-5-5-5-5-5-4-4-4-4-5-5-7-7---------------------------|
G|-6-6-6-6-6-6-6-6-6-6-6-6-6-4-4-4-4-6-6-8-8---------------------------|
D|-6-6-6-6-6-6-6-6-6-6-6-6-6-2-2-2-2-6-6-8-8---------------------------|
A|-4-4-4-4-4-4-4-4-4-4-4-4-4-2-2-2-2-4-4-6-6---------------------------|
E|---------------------------------------------------------------------|


  She can't even manage,    | bad...
  to stand on her own,      |
  it's gotten so            |
e|---------------------------------------------------------------------|
B|-5-5-5-5-5-5-5-5-5-5-5-5-5-4-4-4-4-5-5-7-7---------------------------|
G|-6-6-6-6-6-6-6-6-6-6-6-6-6-4-4-4-4-6-6-8-8---------------------------|
D|-6-6-6-6-6-6-6-6-6-6-6-6-6-2-2-2-2-6-6-8-8---------------------------|
A|-4-4-4-4-4-4-4-4-4-4-4-4-4-2-2-2-2-4-4-6-6---------------------------|
E|---------------------------------------------------------------------|

Pre-chorus:

  Now YOU think | There's NO| and still   | She bows
  of saying     | use in    |             | her head...
                | praying   |             |
e|---------------------------------------------------------------------|
B|-5-5-5-5-5-5-5-5-----------5-5-5-5-5-5-7-4-4-4-4-5-5-7-7-------------|
G|-6-6-6-6-6-6-6-6s9-9s13-13-6-6-6-6-6-6-6-4-4-4-4-6-6-8-8-------------|
D|-6-6-6-6-6-6-6-6s9-9s13-13-6-6-6-6-6-6-6-2-2-2-2-6-6-8-8-------------|
A|-4-4-4-4-4-4-4-4s7-7s11-11-4-4-4-4-4-4-4-2-2-2-2-4-4-6-6-------------|
E|---------------------------------------------------------------------|

  So she can    | (Music    |Thank you,   | Day.........
  say...        |   only)   |for just one |
                |           |more         |
e|---------------------------------------------------------------------|
B|-5-5-5-5-5-5-5-5-----------5-5-5-5-5-5-7-4-4-4-4-5-5-7-7-------------|
G|-6-6-6-6-6-6-6-6s9-9s13-13-6-6-6-6-6-6-6-4-4-4-4-6-6-8-8-------------|
D|-6-6-6-6-6-6-6-6s9-9s13-13-6-6-6-6-6-6-6-2-2-2-2-6-6-8-8-------------|
A|-4-4-4-4-4-4-4-4s7-7s11-11-4-4-4-4-4-4-4-2-2-2-2-4-4-6-6-------------|
E|---------------------------------------------------------------------|

Chorus:

   Super...       |natural        |grace|face| voice never
                  |patience       |is   |and | raises
                  |               |her  |her |
e|---------------------------------------------------------------------|
B|-5-5-5-5-5-5-5-5-4-4-4-4-4-4-4-4-------------------------------------|
G|-6-6-6-6-6-6-6-6-4-4-4-4-4-4-4-4-1-1-1-9-9-9-4-4-4-4-4-4-4-4---------|
D|-6-6-6-6-6-6-6-6-2-2-2-2-2-2-2-2-2-2-2-9-9-9-4-4-4-4-4-4-4-4---------|
A|-4-4-4-4-4-4-4-4-2-2-2-2-2-2-2-2-2-2-2-7-7-7-2-2-2-2-2-2-2-2---------|
E|---------------------------------0-0-0-------------------------------|


  It's all because, of a love   | Never let go of...
e|-----------------------------------------------------------|
B|-5-5-5-5-5-5-5-5-5-5-5-5-5-5-5-----------------------------|
G|-6-6-6-6-6-6-6-6-6-6-6-6-6-6-6-4-4-4-4-4-4-4-4-4s9-9-9s8-8-|
D|-6-6-6-6-6-6-6-6-6-6-6-6-6-6-6-4-4-4-4-4-4-4-4-4s9-9-9s8-8-|
A|-4-4-4-4-4-4-4-4-4-4-4-4-4-4-4-2-2-2-2-2-2-2-2-4s7-7-7s6-6-|
E|-----------------------------------------------------------|

  Never let
  go of...
e|---------------------------------------------------------------------|
B|-5-5-5-5-5-5-5-5-----------5-5-5-5-5-5-7-4-4-4-4-5-5-7-7-------------|
G|-6-6-6-6-6-6-6-6s9-9s13-13-6-6-6-6-6-6-6-4-4-4-4-6-6-8-8-------------|
D|-6-6-6-6-6-6-6-6s9-9s13-13-6-6-6-6-6-6-6-2-2-2-2-6-6-8-8-------------|
A|-4-4-4-4-4-4-4-4s7-7s11-11-4-4-4-4-4-4-4-2-2-2-2-4-4-6-6-------------|
E|---------------------------------------------------------------------|

Verse 2:

  He has every reason,    | in the face of
  to throw up his fist    | his God who let
                          | his mother die
e|---------------------------------------------------------------------|
B|-5-5-5-5-5-5-5-5-5-5-5-5-5-4-4-4-4-5-5-7-7---------------------------|
G|-6-6-6-6-6-6-6-6-6-6-6-6-6-4-4-4-4-6-6-8-8---------------------------|
D|-6-6-6-6-6-6-6-6-6-6-6-6-6-2-2-2-2-6-6-8-8---------------------------|
A|-4-4-4-4-4-4-4-4-4-4-4-4-4-2-2-2-2-4-4-6-6---------------------------|
E|---------------------------------------------------------------------|


  Through all the prayer  | anyway...
  & tears...She still     |
  passed in pain          |
e|---------------------------------------------------------------------|
B|-5-5-5-5-5-5-5-5-5-5-5-5-5-4-4-4-4-5-5-7-7---------------------------|
G|-6-6-6-6-6-6-6-6-6-6-6-6-6-4-4-4-4-6-6-8-8---------------------------|
D|-6-6-6-6-6-6-6-6-6-6-6-6-6-2-2-2-2-6-6-8-8---------------------------|
A|-4-4-4-4-4-4-4-4-4-4-4-4-4-2-2-2-2-4-4-6-6---------------------------|
E|---------------------------------------------------------------------|

Pre-chorus:

  Now YOU think | There's NO| and still   | He bows
  of saying     | use in    |             | his head...
                | praying   |             |
e|---------------------------------------------------------------------|
B|-5-5-5-5-5-5-5-5-----------5-5-5-5-5-5-7-4-4-4-4-5-5-7-7-------------|
G|-6-6-6-6-6-6-6-6s9-9s13-13-6-6-6-6-6-6-6-4-4-4-4-6-6-8-8-------------|
D|-6-6-6-6-6-6-6-6s9-9s13-13-6-6-6-6-6-6-6-2-2-2-2-6-6-8-8-------------|
A|-4-4-4-4-4-4-4-4s7-7s11-11-4-4-4-4-4-4-4-2-2-2-2-4-4-6-6-------------|
E|---------------------------------------------------------------------|


  So he can     | (Music    |Thank you,   | pain........
  say...        |   only)   |for ending   |
                |           |her          |
e|---------------------------------------------------------------------|
B|-5-5-5-5-5-5-5-5-----------5-5-5-5-5-5-7-4-4-4-4-5-5-7-7-------------|
G|-6-6-6-6-6-6-6-6s9-9s13-13-6-6-6-6-6-6-6-4-4-4-4-6-6-8-8-------------|
D|-6-6-6-6-6-6-6-6s9-9s13-13-6-6-6-6-6-6-6-2-2-2-2-6-6-8-8-------------|
A|-4-4-4-4-4-4-4-4s7-7s11-11-4-4-4-4-4-4-4-2-2-2-2-4-4-6-6-------------|
E|---------------------------------------------------------------------|


Chorus:

   Super...       |natural        |grace|face| voice never
                  |patience       |is   |and | raises
                  |               |his  |his |
e|---------------------------------------------------------------------|
B|-5-5-5-5-5-5-5-5-4-4-4-4-4-4-4-4-------------------------------------|
G|-6-6-6-6-6-6-6-6-4-4-4-4-4-4-4-4-1-1-1-9-9-9-4-4-4-4-4-4-4-4---------|
D|-6-6-6-6-6-6-6-6-2-2-2-2-2-2-2-2-2-2-2-9-9-9-4-4-4-4-4-4-4-4---------|
A|-4-4-4-4-4-4-4-4-2-2-2-2-2-2-2-2-2-2-2-7-7-7-2-2-2-2-2-2-2-2---------|
E|---------------------------------0-0-0-------------------------------|


  It's all because, of a love   | Never let go of...
e|-----------------------------------------------------------|
B|-5-5-5-5-5-5-5-5-5-5-5-5-5-5-5-----------------------------|
G|-6-6-6-6-6-6-6-6-6-6-6-6-6-6-6-4-4-4-4-4-4-4-4-4s9-9-9s8-8-|
D|-6-6-6-6-6-6-6-6-6-6-6-6-6-6-6-4-4-4-4-4-4-4-4-4s9-9-9s8-8-|
A|-4-4-4-4-4-4-4-4-4-4-4-4-4-4-4-2-2-2-2-2-2-2-2-4s7-7-7s6-6-|
E|-----------------------------------------------------------|

Bridge:

e|-0-0-0-0---------0-0-0-0-0-0-----|
B|-0-0-0-0---------0-0-0-0-0-0-----|
G|-2-2-2-2-9-9-9-9-2-2-2-2-2-2-4-4-|
D|-2-2-2-2-9-9-9-9-2-2-2-2-2-2-4-4-|
A|-0-0-0-0-7-7-7-7-0-0-0-0-0-0-2-2-|
E|---------------------------------|

  He is   |teach- | Me......
          |ing    |
e|-0-0-0-0---------0-0-0-0-0-0-----|
B|-0-0-0-0---------0-0-0-0-0-0-----|
G|-2-2-2-2-9-9-9-9-2-2-2-2-2-2-4-4-|
D|-2-2-2-2-9-9-9-9-2-2-2-2-2-2-4-4-|
A|-0-0-0-0-7-7-7-7-0-0-0-0-0-0-2-2-|
E|---------------------------------|

  What    |really | Means...
  love    |       |
e|-0-0-0-0---------0---------------|
B|-0-0-0-0---------0---------------|
G|-2-2-2-2-9-9-9-9-2---------------| (Let the last chord
D|-2-2-2-2-9-9-9-9-2---------------|  drag out)
A|-0-0-0-0-7-7-7-7-0---------------|
E|---------------------------------|

Chorus:

   Super...       |natural        |grace|face| voice never
                  |patience       |is   |and | raises
                  |               |his  |his |
e|---------------------------------------------------------------------|
B|-5-5-5-5-5-5-5-5-4-4-4-4-4-4-4-4-------------------------------------|
G|-6-6-6-6-6-6-6-6-4-4-4-4-4-4-4-4-1-1-1-9-9-9-4-4-4-4-4-4-4-4---------|
D|-6-6-6-6-6-6-6-6-2-2-2-2-2-2-2-2-2-2-2-9-9-9-4-4-4-4-4-4-4-4---------|
A|-4-4-4-4-4-4-4-4-2-2-2-2-2-2-2-2-2-2-2-7-7-7-2-2-2-2-2-2-2-2---------|
E|---------------------------------0-0-0-------------------------------|


  It's all because, of a love   | Never let go of...
e|-----------------------------------------------------------|
B|-5-5-5-5-5-5-5-5-5-5-5-5-5-5-5-----------------------------|
G|-6-6-6-6-6-6-6-6-6-6-6-6-6-6-6-4-4-4-4-4-4-4-4-4s9-9-9s8-8-|
D|-6-6-6-6-6-6-6-6-6-6-6-6-6-6-6-4-4-4-4-4-4-4-4-4s9-9-9s8-8-|
A|-4-4-4-4-4-4-4-4-4-4-4-4-4-4-4-2-2-2-2-2-2-2-2-4s7-7-7s6-6-|
E|-----------------------------------------------------------|

   It's a         |natural        |grace|face| voice never
   Super...       |patience       |is   |and | raises
                  |               |his  |his |
e|---------------------------------------------------------------------|
B|-5-5-5-5-5-5-5-5-4-4-4-4-4-4-4-4-------------------------------------|
G|-6-6-6-6-6-6-6-6-4-4-4-4-4-4-4-4-1-1-1-9-9-9-4-4-4-4-4-4-4-4---------|
D|-6-6-6-6-6-6-6-6-2-2-2-2-2-2-2-2-2-2-2-9-9-9-4-4-4-4-4-4-4-4---------|
A|-4-4-4-4-4-4-4-4-2-2-2-2-2-2-2-2-2-2-2-7-7-7-2-2-2-2-2-2-2-2---------|
E|---------------------------------0-0-0-------------------------------|


  It's all because, of a love   | Never let go of...
e|-----------------------------------------------------------|
B|-5-5-5-5-5-5-5-5-5-5-5-5-5-5-5-----------------------------|
G|-6-6-6-6-6-6-6-6-6-6-6-6-6-6-6-4-4-4-4-4-4-4-4-4s9-9-9s8-8-|
D|-6-6-6-6-6-6-6-6-6-6-6-6-6-6-6-4-4-4-4-4-4-4-4-4s9-9-9s8-8-|
A|-4-4-4-4-4-4-4-4-4-4-4-4-4-4-4-2-2-2-2-2-2-2-2-4s7-7-7s6-6-|
E|-----------------------------------------------------------|

  Never   |
  let go  |
  of......|......
e|-0-0-0-0---------0-0-0-0-0-0-----|
B|-0-0-0-0---------0-0-0-0-0-0-----|
G|-2-2-2-2-9-9-9-9-2-2-2-2-2-2-4-4-|
D|-2-2-2-2-9-9-9-9-2-2-2-2-2-2-4-4-|
A|-0-0-0-0-7-7-7-7-0-0-0-0-0-0-2-2-|
E|---------------------------------|

Outro:

  He is   |teach- | Me......
          |ing    |
e|-0-0-0-0---------0-0-0-0-0-0-----|
B|-0-0-0-0---------0-0-0-0-0-0-----|
G|-2-2-2-2-9-9-9-9-2-2-2-2-2-2-4-4-|
D|-2-2-2-2-9-9-9-9-2-2-2-2-2-2-4-4-|
A|-0-0-0-0-7-7-7-7-0-0-0-0-0-0-2-2-|
E|---------------------------------|

  What    |really | Means...
  love    |       |
e|-0-0-0-0---------0---------------|
B|-0-0-0-0---------0---------------|
G|-2-2-2-2-9-9-9-9-2---------------| (Let the last chord
D|-2-2-2-2-9-9-9-9-2---------------|  drag out)
A|-0-0-0-0-7-7-7-7-0---------------|
E|---------------------------------|

Thanks for looking.  Again, this was done by ear, so I may not have it
completely correct.  Let me know what's wrong by email - Sendrand1@gmail.com
Tap to rate this tab
# A B C D E F G H I J K L M N O P Q R S T U V W X Y Z