Song name
# A B C D E F G H I J K L M N O P Q R S T U V W X Y Z

Flyleaf - Missing tab

I got the rhythm part...
for the verse I wasn't sure of which riff was lead or rhythm,
 so i just picked one...pretty sure there are some mistakes, but enjoy!!
 (tuned to DROP C) the chorus isnt necessarily a hammer/pull, i just figure its cool >,>

It's incomplete at the moment... I'll finish it in hopefully a day or two.


intro

d|----------------------------------------------------|
A|----------------------------------------------------|
F|----------------------------------------------------|
C|-0-----------12----------0--------12------0---------|
G|-0--x8-------12--x8------0--x8----12--x7--0---------|
C|-0-----------12----------0--------12------0---------|

verse 1

d|----------------------------------------------------|
A|----------------------------------------------------|
F|----------------------------------------------------|
C|----------------------------------------------------|
G|----------------------------------------------------|
C|----------------------------------------------------|

chorus 1

d|---------------------------------------------------------------------------------|
A|---------------------------------------------------------------------------------|
F|---------------------------------------------------------------------------------|
C|-0-------------------0------------------0-------------------0-----12-------------|
G|-0--x5---------------0--x5--------------0--x5---------------0-x8--12--x8---------|
C|-0------4p3p02222/7790-----4p3p02222/7790------4p3p02222/77-0-----12-------------|

verse 2

d|----------------------------------------------------|
A|----------------------------------------------------|
F|----------------------------------------------------|
C|----------------------------------------------------|
G|----------------------------------------------------|
C|----------------------------------------------------|

d|----------------------------------------------------|
A|----------------------------------------------------|
F|----------------------------------------------------|
C|----------------------------------------------------|
G|----------------------------------------------------|
C|----------------------------------------------------|

d|----------------------------------------------------|
A|----------------------------------------------------|
F|----------------------------------------------------|
C|----------------------------------------------------|
G|----------------------------------------------------|
C|----------------------------------------------------|

chorus 2

d|---------------------------------------------------------------------------------|
A|---------------------------------------------------------------------------------|
F|---------------------------------------------------------------------------------|
C|-0-------------------0------------------0-------------------0-----12-------------|
G|-0--x5---------------0--x5--------------0--x5---------------0-x8--12--x7---------|
C|-0------4p3p02222/7790-----4p3p02222/7790------4p3p02222/77-0-----12-------------|

d|---------------------------------------------------------------------------------|
A|---------------------------------------------------------------------------------|
F|---------------------------------------------------------------------------------|
C|-0------------------0-----------------0------------------0-----12----------------|
G|-0--x6--------------0--x5-------------0--x5--------------0-x8--12--x8------------|
C|-0------4p3p022227790-----4p3p022227790------4p3p0222277-0-----12----------------|

d|----------------------------------------------------|
A|----------------------------------------------------|
F|----------------------------------------------------|
C|-0-----------12----------0--------12----------------|
G|-0--x8-------12--x8------0--x8----12--x8------------|
C|-0-----------12----------0--------12----------------|

bridge


final chorus

d|---------------------------------------------------------------------------------|
A|---------------------------------------------------------------------------------|
F|---------------------------------------------------------------------------------|
C|-0-------------------0------------------0-------------------0-----12-------------|
G|-0--x5---------------0--x5--------------0--x5---------------0-x8--12--x7---------|
C|-0------4p3p02222/7790-----4p3p02222/7790------4p3p02222/77-0-----12-------------|

d|---------------------------------------------------------------------------------|
A|---------------------------------------------------------------------------------|
F|---------------------------------------------------------------------------------|
C|-0------------------0-----------------0------------------0-----12----------------|
G|-0--x6--------------0--x5-------------0--x5--------------0-x8--12--x8------------|
C|-0------4p3p022227790-----4p3p022227790------4p3p0222277-0-----12----------------|

d|----------------------------------------------------|
A|----------------------------------------------------|
F|----------------------------------------------------|
C|-0-----------12----------0--------12-----0----------|
G|-0--x8-------12--x8------0--x8----12--x7-0----------|
C|-0-----------12----------0--------12-----0----------|


Thank you for your time.
Tap to rate this tab
 
# A B C D E F G H I J K L M N O P Q R S T U V W X Y Z