Song name
# A B C D E F G H I J K L M N O P Q R S T U V W X Y Z

Flyleaf - Missing tab

its my 1st time pls try to  consider :)
drop c
pls rate... :) add me on fb ocson_k@yahoo.com

intro
d|---12-12-12--------------------|
A|------------14-14-14-----------|
F|--------------------14-14-14---|3x
C|-------------------------------|
G|-------------------------------|
C|-------------------------------|


d|---12-12-12---------------------|
A|------------14-14-14------------|
F|---------------------14~--------|
C|--------------------------------|
G|--------------------------------|
C|--------------------------------|

verse
d|---------------------------7h9---------5h7----------|
A|--------5h7------5p7--------------------------------|
F|----------------------------------------------------|
C|----------------------------------------------------|
G|----------------------------------------------------|
C|----------------------------------------------------|


chorus
d|-12-12------------12-------12-12------------9-12-|
A|-------10-10--10-----10-10------10-10--10-12-----|
F|-------------------------------------------------|
C|-------------------------------------------------|
G|-------------------------------------------------|
C|-------------------------------------------------|

d|-12-12------------12-------12-------------12/14\12-|
A|-------10-10--10-----10-10---10-10--12-12----------|
F|---------------------------------------------------|
C|---------------------------------------------------|
G|---------------------------------------------------|
C|---------------------------------------------------|


d|-12-12------------12-------12-12------------9-12-|
A|-------10-10--10-----10-10------10-10--10-12-----|
F|-------------------------------------------------|
C|-------------------------------------------------|
G|-------------------------------------------------|
C|-------------------------------------------------|

d|-12-12------------12-------12-12----------12-----| try to figure out
A|-------10-10--10-----10-10------10-10--10---10-10| where it stops.. 
F|-------------------------------------------------|
C|-------------------------------------------------|
G|-------------------------------------------------|
C|-------------------------------------------------|
Tap to rate this tab
# A B C D E F G H I J K L M N O P Q R S T U V W X Y Z