Song name
# A B C D E F G H I J K L M N O P Q R S T U V W X Y Z

Flyleaf - Missing tab

Missing by Flyleaf tab. It's not both lead & rhythm, only rhythm based. sry lol.
For the verses, I put 2 versions of the verses, so u can replace one. I doubt that i 
the entire rhythm, but eh.
more or less. Although its already mentioned, the tuning is drop c >,>

intro

d|----------------------------------------------------|
A|----------------------------------------------------|
F|----------------------------------------------------|
C|-0-----------12----------0--------12------0---------|
G|-0--x8-------12--x8------0--x8----12--x7--0---------|
C|-0-----------12----------0--------12------0---------|

verse 1

d|----------------------------------------------------|
A|----------------------------------------------------|
F|-2---1h2p1-----------2--4---------------------------|
C|------------2-4-------------------------------------|
G|----------------------------------------------------|
C|----------------------------------------------------|

d|--545-----------2-----545-----------2---------------|
A|-------2-0-2--5------------2-0-2--5-----------------|
F|----------------------------------------------------|
C|----------------------------------------------------|
G|----------------------------------------------------|
C|----------------------------------------------------|

chorus 1

d|---------------------------------------------------------------------------|
A|---------------------------------------------------------------------------|
F|---------------------------------------------------------------------------|
C|-0-------------------0------------------0-------------------0-----12-------|
G|-0--x5---------------0--x5--------------0--x5---------------0-x8--12--x8---|
C|-0------4p3p02222/7790-----4p3p02222/7790------4p3p02222/77-0-----12-------|

verse 2(u can either repeat the 1st verse or just
play it on a different part of the fretboard like this)

d|----------------------------------------------------|
A|----------------------------------------------------|
F|----------------------------------------------------|
C|--7---6h7p6-------7--9------------------------------|
G|------------9-11------------------------------------|
C|----------------------------------------------------|

d|----------------------------------------------------|
A|-10-9-10--------------------------------------------|
F|------------------9-11------------------------------|
C|---------11-9-11------------------------------------|
G|----------------------------------------------------|
C|----------------------------------------------------|

chorus 2

d|--------------------------------------------------------------------------|
A|--------------------------------------------------------------------------|
F|--------------------------------------------------------------------------|
C|-0-------------------0------------------0-------------------0-----12------|
G|-0--x5---------------0--x5--------------0--x5---------------0-x8--12--x7--|
C|-0------4p3p02222/7790-----4p3p02222/7790------4p3p02222/77-0-----12------|

d|---------------------------------------------------------------------------|
A|---------------------------------------------------------------------------|
F|---------------------------------------------------------------------------|
C|-0------------------0-----------------0------------------0-----12----------|
G|-0--x6--------------0--x5-------------0--x5--------------0-x8--12--x8------|
C|-0------4p3p022227790-----4p3p022227790------4p3p0222277-0-----12----------|

d|----------------------------------------------------|
A|----------------------------------------------------|
F|----------------------------------------------------|
C|-0-----------12----------0--------12----------------|
G|-0--x8-------12--x8------0--x8----12--x8------------|
C|-0-----------12----------0--------12----------------|


bridge( i assume that lead plays it but eh >,>)

d|-17---16---14---17----------------------------------|
A|-17---17---15---14----x2----------------------------|
F|----------------------------------------------------|
C|----------------------------------------------------|
G|----------------------------------------------------|
C|----------------------------------------------------|


final chorus

d|---------------------------------------------------------------------------|
A|---------------------------------------------------------------------------|
F|---------------------------------------------------------------------------|
C|-0-------------------0------------------0-------------------0-----12-------|
G|-0--x5---------------0--x5--------------0--x5---------------0-x8--12--x7---|
C|-0------4p3p02222/7790-----4p3p02222/7790------4p3p02222/77-0-----12-------|

d|---------------------------------------------------------------------------|
A|---------------------------------------------------------------------------|
F|---------------------------------------------------------------------------|
C|-0------------------0-----------------0------------------0-----12----------|
G|-0--x6--------------0--x5-------------0--x5--------------0-x8--12--x8------|
C|-0------4p3p022227790-----4p3p022227790------4p3p0222277-0-----12----------|

d|--------------------------------------------------12-|
A|-----------------------------------------------10----|
F|-----------------------------------------------------|
C|-0-----------12----------0--------12-----0-----------|
G|-0--x8-------12--x8------0--x8----12--x7-0-----------|
C|-0-----------12----------0--------12-----0-----------|


the last 2 notes are optional i guess. Like i said previously, im not sure if the verses 
tabbed are 100% rhythm, but eh

Done...Thank you for your time.
Tap to rate this tab
 
# A B C D E F G H I J K L M N O P Q R S T U V W X Y Z