Song name
# A B C D E F G H I J K L M N O P Q R S T U V W X Y Z

Flyleaf - This Close tab

-----------------------------------------------------------------------------
			     THIS CLOSE - FLYLEAF
-----------------------------------------------------------------------------
Tabbed by: iC&GMusic

Hey, in the intro when it is 17\13 the 13 is going to sound wrong
but it is right with the song.  Some parts are an octave higher 
(i know this) this is only to allow the tuning to be normal.
The lead guitarist may opt out of playing the chords but if you
want to still like me then go for it!  I didn't put any sort of
attempt at rhythms so for those high tech tabs people sorry you'll
just have to listen to the song.  THIS TAB IS WORD FRIENDLY!! If
You take your tabs and paste them into word before printing or
using congratz you don't have those stupid lines to erase that
make the tabs seem like your playing to notes at once! Yippy!
Hope you like them!

Tuning: Normal

Intro
e|--------------------------------------------------------------------------|
B|--14b15r14-----------------------17\13----14b15r14------------------------|
G|------------13b14r13--------------------------------13b14r13--------------|
D|----------------------14--14/16-------------------------------14-14/16----|
A|--------------------------------------------------------------------------|
E|--------------------------------------------------------------------------|

e|--------------------------------------------------------------------------|
B|-----------14b15r14-----------------------17\13----14b15r14---------------|
G|----------------------13b14r13-------------------------------13b14r13-----|
D|--------------------------------14-14/16-------------------------------14-|
A|--14/16-------------------------------------------------------------------|
E|--------------------------------------------------------------------------|
             Verse 1
                Db  F   Ab              Db   F   Ab
e|---------|--------1---4--------------------1---4--------------------------|
B|---------|----6---1---4---------------6----1---4--------------------------|
G|---------|----6---2---5---------------6----2---5----------------------10--|
D|--14/16--|----6---3---6------8-10b----6----3---6-------8-10b---8--10------|
A|---------|----4---3---6---8-----------4----3---6----8---------------------|
E|---------|--------1---4--------------------1---4--------------------------|
   Pre-Chorus                   Chorus
    Db  Ab  Bbm  Eb  Db  F
e|------4----6-----------1---|----------------------------------------------|
B|--6---4----6---8---6---1---|---14b15r14-----------------------17\13-------|
G|--6---5----7---8---6---2---|-------------13b14r13--------------------13---|
D|--6---6----8---8---6---3---|-----------------------14-14/16---------------|
A|--4---6----8---6---4---3---|----------------------------------------------|
E|------4----6-----------1---|----------------------------------------------|
   P.M. . . . . . . . .|

e|--------------------------------------------------------------------------|
B|-----16------------------16----------16----------16----------16-16-16-----|
G|--15-----13--12--13--15------13--15------13--15------13--15---------------|
D|--------------------------------------------------------------------------|
A|--------------------------------------------------------------------------|
E|--------------------------------------------------------------------------|

e|--------------------------------------------------------------------------|
B|--16-16-16-16-16-16---14b15r14----------------------17\13----------16-----|
G|--------------------------------13b14r13-------------------13--15------13-|
D|------------------------------------------14-14/16------------------------|
A|--------------------------------------------------------------------------|
E|--------------------------------------------------------------------------|
                                                              
e|--------------------------------------------------------------------------|
B|--------------16----------16----------16----------16-16b17---14b15r14-----|
G|--12--13--15------13--15------13--15------13--15--------------------------|
D|--------------------------------------------------------------------------|
A|--------------------------------------------------------------------------|
E|--------------------------------------------------------------------------|

e|------------------------------------------------------------------|-------|
B|----------------------17\13---14b15r14----------------------------|-------|
G|--13b14b13------------------------------13b14r13------------------|-------|
D|------------14-14/16-------------------------------14-------------|-------|
A|-------------------------------------------------------14-14/16---|-------|
E|------------------------------------------------------------------|-------|
   Verse 2
    Db  F                           Db  F
e|------1-------------------------------1-----------------------------------|
B|--6---1-----------16--------------6---1-----------16-12+------------16----|
G|--6---2---13--15------------------6---2---13--15--------------------------|
D|--6---3---------------------------6---3-----------------------------------|
A|--4---3-------------------13-15b--4---3-----------------------13-15b---13-|
E|------1---------------13--------------1-------------------13--------------|

e|--------------------------|
B|----------16--14--13------|
G|--13--15--------------13--|
D|--------------------------|
A|--------------------------|
E|--------------------------|

Pre-Chorus
Chorus
Pre-Chorus --> Drums, Bass, and Vocals only
Chorus
Half of Intro
Chorus

************************************
| /   slide up
| \   slide down
| +   harmonic
| h   hammer-on
| p   pull-off
| b   Bend
| r  Bend release
************************************
Tap to rate this tab
 
# A B C D E F G H I J K L M N O P Q R S T U V W X Y Z