Song name
# A B C D E F G H I J K L M N O P Q R S T U V W X Y Z

Flyleaf - So I Thought tab

----------------------------------------------------------------------------
			     So I Thought - Flyleaf
----------------------------------------------------------------------------
Tabbed by: Elizabeth R.
Album: Flyleaf (2007 Special Edition Version)
Tuning: Drop D (DADGBe)

-----
Intro
-----

e|-------17--14-----------17-------------|
b|---15---------------15-----14h15p14-12-|
g|---------------------------------------|
D|-0--------------0----------------------|
A|---------------------------------------|
D|---------------------------------------|


e|-----------------------------------------------------------|
b|-----------------------------------------------------------|
g|------9-7-9-7-9-7h9p7----9-7-9-7-9-7h9p7---11----12--14----|
D|---7-------------------7----------------------12-----------|
A|-----------------------------------------------------------|
D|-----------------------------------------------------------|

----
Verse
-----

e|-------17--14-----------17-------------|
b|---15---------------15-----14h15p14-12-|
g|---------------------------------------|
D|-0--------------0----------------------|
A|---------------------------------------|
D|---------------------------------------|
   All your twisted...

e|-----------------------------------------------------------|
b|-----------------------------------------------------------|
g|------9-7-9-7-9-7h9p7----9-7-9-7-9-7h9p7---11----12--14----|
D|---7-------------------7----------------------12-----------|
A|-----------------------------------------------------------|
D|-----------------------------------------------------------|
   Show soul, kiss the stars...          stupid calls...

e|-------17--14-----------17-------------|
b|---15---------------15-----14h15p14-12-|
g|---------------------------------------|
D|-0--------------0----------------------|
A|---------------------------------------|
D|---------------------------------------|
   We say to those...

e|-----------------------------------------------------------|
b|-----------------------------------------------------------|
g|------9-7-9-7-9-7h9p7----9-7-9-7-9-7h9p7---11----12--14----|
D|---7-------------------7----------------------12-----------|
A|-----------------------------------------------------------|
D|-----------------------------------------------------------|
  Young, I know that's true...                        So I thought...


e|------------------------------------------|
b|------------------------------------------|
g|------9-7-9-7-9-7h9p7----9-7-9-7-9-7h9p7--|
D|---7-------------------7------------------|
A|------------------------------------------|
D|------------------------------------------|
   A year goes by......

e|----------------------------------------|
b|----------------------------------------|
g|--11----11--11--11-11-12----12---12--14-|
D|-----12------------------12-------------|
A|----------------------------------------|
D|----------------------------------------|
   and I can't                  talk about it


e|-------17--14-----------17-------------|
b|---15---------------15-----14h15p14-12-|
g|---------------------------------------|
D|-0--------------0----------------------|
A|---------------------------------------|
D|---------------------------------------|
   On my knees...

e|-----------------------------------------------------------|
b|-----------------------------------------------------------|
g|------9-7-9-7-9-7h9-7----9-7-9-7-9-7h9-7---11----12--14----|
D|---7-------------------7----------------------12-----------|
A|-----------------------------------------------------------|
D|-----------------------------------------------------------|
   Myself in this...                    and that I might lose...

e|-------17--14-----------17-------------|
b|---15---------------15-----14h15p14-12-|
g|---------------------------------------|
D|-0--------------0----------------------|
A|---------------------------------------|
D|---------------------------------------|
   Ignorance is bliss...

e|-----------------------------------------------------------|
b|-----------------------------------------------------------|
g|------9-7-9-7-9-7h9-7----9-7-9-7-9-7h9-7---11----12--14----|
D|---7-------------------7----------------------12-----------|
A|-----------------------------------------------------------|
D|-----------------------------------------------------------|
  Too much to hold...                        lies about the times...


e|------------------------------------------|
b|------------------------------------------|
g|------9-7-9-7-9-7h9p7----9-7-9-7-9-7h9p7--|
D|---7-------------------7------------------|
A|------------------------------------------|
D|------------------------------------------|
   A year goes by......

e|----------------------------------------|
b|----------------------------------------|
g|--11----11--11--11-11-12----12---12--14-|
D|-----12------------------12-------------|
A|----------------------------------------|
D|----------------------------------------|
   and I can't               talk about it

e|------------------------------------------|
b|------------------------------------------|
g|------9-7-9-7-9-7h9p7----9-7-9-7-9-7h9p7--|
D|---7-------------------7------------------|
A|------------------------------------------|
D|------------------------------------------|
   The times weren't right......

e|----------------------------------------|
b|----------------------------------------|
g|--11----11--11--11-11-12----12---12--14-|
D|-----12------------------12-------------|
A|----------------------------------------|
D|----------------------------------------|
   and I couldn't               talk about it


------
Chorus
------

e|-----------------------------|
b|-----------------------------|
g|-----------------------------|
D|-0-0--0-0--0-0-9-9--9-5--5-5-|
A|-0-0--0-0--0-0-9-9--9-5--5-5-|
D|-0-0--0-0--0-0-9-9--9-5--5-5-|
  Choris romance...

e|-----------------------------|
b|-----------------------------|
g|-----------------------------|
D|-0-0--0-0--0-0-9-9--9-5--5-5-|
A|-0-0--0-0--0-0-9-9--9-5--5-5-|
D|-0-0--0-0--0-0-9-9--9-5--5-5-|
   Remember you...

e|---------------------------------------------------------|
b|---------------------------------------------------------|
g|---------------------------------------------------------|
D|-0-0--0-0--0-0-9-9--9-5--5-5-2-2--2-2--2-2-5-5--5-5--5-5-|
A|-0-0--0-0--0-0-9-9--9-5--5-5-2-2--2-2--2-2-5-5--5-5--5-5-|
D|-0-0--0-0--0-0-9-9--9-5--5-5-2-2--2-2--2-2-5-5--5-5--5-5-|
    Choris romance...          remember you...

e|---
b|---
g|---
D|-9-
A|-9- let ring
D|-9-


------
Bridge
------

e|---------------------------------------------------------------|
b|-------------------------------------------10-8----------------|
g|-11h12-11h12-11h12-11h12-11h12-11h12-11h12------11-11h12-11h12-|
D|---------------------------------------------------------------|
A|---------------------------------------------------------------|
D|---------------------------------------------------------------|
   And I'm praying that we will see        something there...

e|---------------------------------------------------------------|
b|-------------------------------------------10-8----------------|
g|-11h12-11h12-11h12-11h12-11h12-11h12-11h12------11-11h12-11h12-|
D|---------------------------------------------------------------|
A|---------------------------------------------------------------|
D|---------------------------------------------------------------|
  Then and there that exceeds all we can dream so we can talk about it

----
Solo
----
(Note: Sameer plays a complicated piece which is somewhat like the intro. However, 
guitar 2 is much simpler, and that is what I play.)

e|----------------------------------------------------------|
b|----------------------------------------------------------|
g|----------------------------------------------------------|
D|-0-0--0-0--0-0-9-9--9-5--5-5--0-0--0-0--0-0-9-9--9-5--5-5-|
A|-0-0--0-0--0-0-9-9--9-5--5-5--0-0--0-0--0-0-9-9--9-5--5-5-|
D|-0-0--0-0--0-0-9-9--9-5--5-5--0-0--0-0--0-0-9-9--9-5--5-5-|

e|---------------------------------------------------------|
b|---------------------------------------------------------|
g|---------------------------------------------------------|
D|-0-0--0-0--0-0-9-9--9-5--5-5-2-2--2-2--2-2-5-5--5-5--5-5-|
A|-0-0--0-0--0-0-9-9--9-5--5-5-2-2--2-2--2-2-5-5--5-5--5-5-|
D|-0-0--0-0--0-0-9-9--9-5--5-5-2-2--2-2--2-2-5-5--5-5--5-5-|

e|---
b|---
g|---
D|-0-
A|-0- let ring
D|-0-


-------
Chorus
-------

e|-----------------------------|
b|-----------------------------|
g|-----------------------------|
D|-0-0--0-0--0-0-9-9--9-5--5-5-|
A|-0-0--0-0--0-0-9-9--9-5--5-5-|
D|-0-0--0-0--0-0-9-9--9-5--5-5-|
  Choris romance...

e|-----------------------------|
b|-----------------------------|
g|-----------------------------|
D|-0-0--0-0--0-0-9-9--9-5--5-5-|
A|-0-0--0-0--0-0-9-9--9-5--5-5-|
D|-0-0--0-0--0-0-9-9--9-5--5-5-|
   Remember you...

e|---------------------------------------------------------|
b|---------------------------------------------------------|
g|---------------------------------------------------------|
D|-0-0--0-0--0-0-9-9--9-5--5-5-2-2--2-2--2-2-5-5--5-5--5-5-|
A|-0-0--0-0--0-0-9-9--9-5--5-5-2-2--2-2--2-2-5-5--5-5--5-5-|
D|-0-0--0-0--0-0-9-9--9-5--5-5-2-2--2-2--2-2-5-5--5-5--5-5-|
    Choris romance...          remember you...


------
Bridge
------

e|-----------------------------------------------------------------|
b|-----------------------------------------------------------------|
g|-----------------------------------------------------------------|
D|-9-9-9-9-9-9-9-9-7-7-7-7-7-7-7-7-5-5-5-5-5-5-5-5-5-5-5-5-5-5-5-5-|
A|-9-9-9-9-9-9-9-9-7-7-7-7-7-7-7-7-5-5-5-5-5-5-5-5-5-5-5-5-5-5-5-5-|
D|-9-9-9-9-9-9-9-9-7-7-7-7-7-7-7-7-5-5-5-5-5-5-5-5-5-5-5-5-5-5-5-5-|
  And Iím praying  that we will    see something there in between

e|-----------------------------------------------------------------|
b|-----------------------------------------------------------------|
g|-----------------------------------------------------------------|
D|-9-9-9-9-9-9-9-9-7-7-7-7-7-7-7-7-5-5-5-5-5-5-5-5-5-5-5-5-5-5-5-5-|
A|-9-9-9-9-9-9-9-9-7-7-7-7-7-7-7-7-5-5-5-5-5-5-5-5-5-5-5-5-5-5-5-5-|
D|-9-9-9-9-9-9-9-9-7-7-7-7-7-7-7-7-5-5-5-5-5-5-5-5-5-5-5-5-5-5-5-5-|
   Then and        there that      exceeds

e|-----------------------------------------------------------------|
b|-----------------------------------------------------------------|
g|-----------------------------------------------------------------|
D|-9-9-9-9-9-9-9-9-7-7-7-7-7-7-7-7-5-5-5-5-5-5-5-5-5-5-5-5-5-5-5-5-|
A|-9-9-9-9-9-9-9-9-7-7-7-7-7-7-7-7-5-5-5-5-5-5-5-5-5-5-5-5-5-5-5-5-|
D|-9-9-9-9-9-9-9-9-7-7-7-7-7-7-7-7-5-5-5-5-5-5-5-5-5-5-5-5-5-5-5-5-|
   All we can dream......................

e|-----------------------------------------------------------------|
b|-----------------------------------------------------------------|
g|-----------------------------------------------------------------|
D|-9-9-9-9-9-9-9-9-7-7-7-7-7-7-7-7-5-5-5-5-5-5-5-5-5-5-5-5-5-5-5-5-|
A|-9-9-9-9-9-9-9-9-7-7-7-7-7-7-7-7-5-5-5-5-5-5-5-5-5-5-5-5-5-5-5-5-|
D|-9-9-9-9-9-9-9-9-7-7-7-7-7-7-7-7-5-5-5-5-5-5-5-5-5-5-5-5-5-5-5-5-|
   In all these... Jesus there...  In all these twisted thoughts...


End on

e|---
b|---
g|---
D|-0-
A|-0- let ring
D|-0-

************************************

| h   hammer-on
| p   pull-off
| b   Bend

************************************
Tap to rate this tab
 
# A B C D E F G H I J K L M N O P Q R S T U V W X Y Z