Song name
# A B C D E F G H I J K L M N O P Q R S T U V W X Y Z

Flyleaf - Fully Alive Acoustic tab

----------------------------------------------------------------------------
                        Fully Alive (Acoustic) - Flyleaf
----------------------------------------------------------------------------

This song is the second track on the WCCC live at planet of sound 3 album. Enjoy!


Tuning: Drop D


Intro:
e|------------------------------------------------------------------|
B|------------------------------------------------------------------|
G|------------------------------------------------------------------|
D|------------------------------------------------------------------|
A|----------1---1-3----------1---1-3----------1---1-3--1---1--------|
D|--3-0-3-5---5------3-0-3-5---5------3-0-3-5---5--------5----5-0---|
    * * *

e|----------------------------------------------------------------|
B|----------------------------------------------------------------|
G|----------------------------------------------------------------|
D|--3-0-3-5-8-5-8-10--8-5-8--5-0---3-0-3-5-8-5-8-10--8-5-8--5-0---|
A|--3-0-3-5-8-5-8-10--8-5-8--5-0---3-0-3-5-8-5-8-10--8-5-8--5-0---|
D|--3-0-3-5-8-5-8-10--8-5-8--5-0---3-0-3-5-8-5-8-10--8-5-8--5-0---|

Verse 1:
e|--------------------------------------------------------------------|
B|--------------------------------------------------------------------|
G|--------------------------------------------------------------------|
D|--3-0--x-x-x--x-x-5-0--x-x-x--x-x-----------------------------------|
A|--3-0--x-x-x--x-x-5-0--x-x-x--x-x---------1---1-3---------1---1-3---| (2x)
D|--3-0--x-x-x--x-x-5-0--x-x-x--x-x-3-0-3-5---5-----3-0-3-5---5-------|

e|--------------------------------------------------------------------|
B|--------------------------------------------------------------------|
G|--------------------------------------------------------------------|
D|--3-0--x-x-x--x-x-8-0--x-x-x--x-x-----------------------------------|
A|--3-0--x-x-x--x-x-8-0--x-x-x--x-x---------1---1-3---------1---1-3---|
D|--3-0--x-x-x--x-x-8-0--x-x-x--x-x-3-0-3-5---5-----3-0-3-5---5-------|

e|--------------------------------------------------------------------|
B|--------------------------------------------------------------------|
G|--------------------------------------------------------------------|
D|--3-0--x-x-x--x-x-5-0--x-x-x--x-x-----------------------------------|
A|--3-0--x-x-x--x-x-5-0--x-x-x--x-x---------1---1-3---------1---1-3---|
D|--3-0--x-x-x--x-x-5-0--x-x-x--x-x-3-0-3-5---5-----3-0-3-5---5-------|

Chorus: 
e|-----------------------------------------------------|
B|-----------------------------------------------------|
G|-----------------------------------------5---5---7---|
D|--0--000000000000--88-55--8888888888--0--3---3---5---|
A|--0--000000000000--88-55--8888888888--0--3---3---5---| (2x)
D|--0--000000000000--88-55--8888888888--0--3---3---5---|


Verse 2:
e|----------------------------------------------------|
B|----------------------------------------------------|
G|----------------------------------------------------|
D|--3-0--x-x-x--x-x-5-0--x-x-x--x-x-------------------|
A|--3-0--x-x-x--x-x-5-0--x-x-x--x-x---------1---1-3---| (2x)
D|--3-0--x-x-x--x-x-5-0--x-x-x--x-x-3-0-3-5---5-------|


e|--------------------------------------------------------|
B|--------------------------------------------------------|
G|--------------------------------------------------------|
D|--3-0--x-x-x-x-x--x-x-8-0--x-x-x--x-x-------------------|
A|--3-0--x-x-x-x-x--x-x-8-0--x-x-x--x-x---------1---1-3---|
D|--3-0--x-x-x-x-x--x-x-8-0--x-x-x--x-x-3-0-3-5---5-------|

e|---------------------------------------------------------------|
B|---------------------------------------------------------------|
G|---------------------------------------------------------------|
D|--3-0--x-x-x--x-x-5-0--x-x-x--x-x------------------------------|
A|--3-0--x-x-x--x-x-5-0--x-x-x--x-x---------1---1-3~~-1---1------|
D|--3-0--x-x-x--x-x-5-0--x-x-x--x-x-3-0-3-5---5---------5---5-0--|

Chorus:
e|-----------------------------------------------------|
B|-----------------------------------------------------|
G|-----------------------------------------5---5---7---|
D|--0--000000000000--88-55--8888888888--0--3---3---5---|
A|--0--000000000000--88-55--8888888888--0--3---3---5---| (2x)
D|--0--000000000000--88-55--8888888888--0--3---3---5---|

Bridge: (6x)
e|------------------------------------------------------------------------|
B|------------------------------------------------------------------------|
G|------------------------------------------------------------------------|
D|-5-5-5-5-5-5-5-5\8-8-8-8-8-8-8-8\10-10-10-10-10-10-10-12-12-12-12-10-10-|
A|-5-5-5-5-5-5-5-5\8-8-8-8-8-8-8-8\10-10-10-10-10-10-10-10-10-10-10-10-10-|
D|-5-5-5-5-5-5-5-5\8-8-8-8-8-8-8-8\10-10-10-10-10-10-10-10-10-10-10-10-10-|
   * * * * * * *     * * * * * *    *  *  *  *  *  *  *

Chorus 2:
e|------------------------------------------------------|
B|------------------------------------------------------|
G|---5-5-5-5-5-5-5-5-xx3-3--3-3-3--3-3-3--3-3-3-3-3-3---|
D|---3-3-3-3-5-5-5-5-xx3-3--3-3-3--3-3-3--3-3-3-3-3-3---|
A|---3-3-3-3-3-3-3-3-xx1-1--1-1-1--1-1-1--1-1-1-1-1-1---| (4x)
D|---3-3-3-3--------------------------------------------|

Outro:
e|-----------------------------------|
B|-----------------------------------|
G|-----------------------------------|
D|-----------------------------------|
A|----------1---1-3--1---1-----------|
D|--3-0-3-5---5--------5----5-3/-----|



| /  slide up
| \  slide down
| h  hammer-on
| p  pull-off
| ~  vibrato
| +  harmonic
| x  Mute note
| *  palm mute
============================================================================
Tap to rate this tab
 
# A B C D E F G H I J K L M N O P Q R S T U V W X Y Z