Flyleaf - Violent Love tab

----------------------------------------------------------------------------
	          justice and mercy (violent love) - flyleaf
----------------------------------------------------------------------------
Tabbed by: squirrel
Email: nothng@hotmail.com

Tuning: drop D

e|------------------------------------------------------|
B|------------------------------------------------------|
G|------------------------------------------------------|
D|13-----------8------------6---------------------------|
A|13-----------8------------6---------------------------|
E|13-----------8------------6---------------------------|
we can't be    oblivious    we are not ignorant

e|------------------------------------------------------|
B|------------------------------------------------------|
G|------------------------------------------------------|
D|13------------------------6---------------------------|
A|13------------------------6---------------------------|
E|13------------------------6---------------------------|
blood in our hearts         blood on our hands

e|------------------------------------------------------|
B|------------------------------------------------------|
G|------------------------------------------------------|
D|13--------------------------8-------------------------|
A|13--------------------------8-------------------------|
E|13--------------------------8-------------------------|
we're human  we reason we're breathing protecting

e|------------------------------------------------------|
B|------------------------------------------------------|
G|------------------------------------------------------|
D|-6----------------------------------------------------|
A|-6----------------------------------------------------|
E|-6----------------------------------------------------|
the living and dying, surviving we're trying to

e|------------------------------------------------------|
B|------------------------------------------------------|
G|------------------------------------------------------|
D|-8------------------------------6---------------------|
A|-8------------------------------6---------------------|
E|-8------------------------------6---------------------|
breathe in safety come home safely

e|------------------------------------------------------|
B|------------------------------------------------------|
G|------------------------------------------------------|
D|-13----------------8------------6---------------------|
A|-13----------------8------------6---------------------|
E|-13----------------8------------6---------------------|
   mercy scream its violent love  justice and mercy(X2)


e|------------------------------------------------------|
B|------------------------------------------------------|
G|------------------------------------------------------|
D|-13-----------8------------6--------------------------|
A|-13-----------8------------6--------------------------|
E|-13-----------8------------6--------------------------|
   death of us created for  justice and mercy(X2)


e|------------------------------------------------------|
B|------------------------------------------------------|
G|------------------------------------------------------|
D|-10----------------8--------------13------------------|
A|-10----------------8--------------13------------------|
E|-10----------------8--------------13------------------|
   this is where they kiss

e|------------------------------------------------------|
B|------------------------------------------------------|
G|------------------------------------------------------|
D|13-----------8------------6---------------------------|
A|13-----------8------------6---------------------------|
E|13-----------8------------6---------------------------|
 life here sacrificed    Someone who paid the price

e|------------------------------------------------------|
B|------------------------------------------------------|
G|------------------------------------------------------|
D|13------------------------6---------------------------|
A|13------------------------6---------------------------|
E|13------------------------6---------------------------|
blood in our hearts         blood on our hands

e|------------------------------------------------------|
B|------------------------------------------------------|
G|------------------------------------------------------|
D|13-------------------------------8--------------------|
A|13-------------------------------8--------------------|
E|13-------------------------------8--------------------|
 We cry out, we're fighting, it's warfare, we're dying,

e|------------------------------------------------------|
B|------------------------------------------------------|
G|------------------------------------------------------|
D|6-----------------------------------------------------|
A|6-----------------------------------------------------|
E|6-----------------------------------------------------|
Believing we're winning, it's ending, we're singing,


e|------------------------------------------------------|
B|------------------------------------------------------|
G|------------------------------------------------------|
D|8---------------6-------------------------------------|
A|8---------------6-------------------------------------|
E|8---------------6-------------------------------------|
It's already done, we've overcome


e|------------------------------------------------------|
B|------------------------------------------------------|
G|------------------------------------------------------|
D|6-----------------------------------------------------|
A|6-----------------------------------------------------|
E|6-----------------------------------------------------|
with a life on the line the fire

e|---------------------------------------------------------|
B|---------------------------------------------------------|
G|---------------------------------------------------------|
D|8-----------------------6--------------------------------|
A|8-----------------------6--------------------------------|
E|8-----------------------6--------------------------------|
That consumes or refines (Fire!),



e|------------------------------------------------------|
B|------------------------------------------------------|
G|------------------------------------------------------|
D|8---------------------6-------------------------------|
A|8---------------------6-------------------------------|
E|8---------------------6-------------------------------|
To ascent or decline, to retreat or to climb,

e|------------------------------------------------------|
B|------------------------------------------------------|
G|------------------------------------------------------|
D|8----------------------6------------------------------|
A|8----------------------6------------------------------|
E|8----------------------6------------------------------|
Out of sight, out of mind 'til attacked from behind.

e|------------------------------------------------------|
B|------------------------------------------------------|
G|------------------------------------------------------|
D|8--------------6--------------------------------------|
A|8--------------6--------------------------------------|
E|8--------------6--------------------------------------|
Will this fire consume or refine?


i'm fairly certain i'm missing chords in the last 5 lines. please email me if you 
figure that part out.
Tap to rate this tab
 
# A B C D E F G H I J K L M N O P Q R S T U V W X Y Z