Flyleaf - Dear My Closest Friend tab

tab for dear my closest friend by flyleaf. i think this is right but you can email me if 
you have any corrections. hope you like it

Tuning:Drop D



clean sound for most of the song but near the end it switches to distortion but its the 
same as the verses.

e|---------------------------------------------------------------------------|
B|---------------------------------------------------------------------------|
G|---------------------------------------------------------------------------|
D|---10-10-10-10-10-10-10-10-----------7-7-7-7-7-7-7-7-----2-2-2-2-2-2-2-2---|
A|---10-10-10-10-10-10-10-10-----------7-7-7-7-7-7-7-7-----2-2-2-2-2-2-2-2---|
D|---10-10-10-10-10-10-10-10-----------7-7-7-7-7-7-7-7-----2-2-2-2-2-2-2-2---|

e|---------------------------------------------------------------------------|
B|---------------------------------------------------------------------------|
G|---------------------------------------------------------------------------|
D|--3-3-3-3-3-3-3-3----------------------------------------------------------|
A|--3-3-3-3-3-3-3-3----------------------------------------------------------|
D|--3-3-3-3-3-3-3-3----------------------------------------------------------|




************************************

| /   slide up
| \   slide down
| h   hammer-on
| p   pull-off
| ~   vibrato
| +   harmonic
| x   Mute note
| b   Bend
| pb  Pre-bend
| br  Bend release
| pbr Pre-bend release
| brb Bend release bend

************************************
Tap to rate this tab
 
# A B C D E F G H I J K L M N O P Q R S T U V W X Y Z