Flyleaf - So I Thought tab

Flyleaf - So I Thought

Tuning - Guitar 1 (EADGBe) - Lead - Delay, Clean, Overdrive
         Guitar 2 (DADGBe) - Rhythm - Overdrive
         
I've broken it down into sections to make it easier to learn :)
Intro - Usually I play with tone off, to get the weird muted effect...     
Guitar 1 - (Delay, Clean)
e|------17--14----14-------17-----------------------------|
B|---15--------15-------15----14h15p14-12~----------------|
G|--------------------------------------------------------|
D|-0------------------0-----------------------------------|
A|--------------------------------------------------------|
E|--------------------------------------------------------|
                                                               
e|------0------------0---0----2---2---2---3---3-3-3/5/10--|
B|--------3--------3---3--------3-------3---3---3-3/5/10--|
G|---2----------------------------------------------------|
D|--------------------------------------------------------|
A|-2---------2-0------------------------------------------|
E|-------------------------(3)----------------------------|

(3) - play with thumb on the 3rd fret of the E string

Break - The small break between the end of the intro and the start of the intro :D
Guitar 1 - (Delay, Clean)
e|---0---0---2---2-2---3---3-3-3/5/10-------|
B|-3---3-------3-----3---3---3-3/5/10-------|
G|------------------------------------------|
D|------------------------------------------|
A|------------------------------------------|
E|--------(3)-------------------------------|

How the start goes

Intro x3
Break x1
Intro x2
Break x2

Chorus - Dead easy :) 
Guitar 2 - (Overdrive)
e|-----------------------------|
B|-----------------------------|
G|-----------------------------|
D|-0-0--0-0--0-0-9-9--9-5--5-5-|  (x2)
A|-0-0--0-0--0-0-9-9--9-5--5-5-|
D|-0-0--0-0--0-0-9-9--9-5--5-5-|

e|---------------------------------------------------------|
B|---------------------------------------------------------|
G|---------------------------------------------------------|
D|-0-0--0-0--0-0-9-9--9-5--5-5-2-2--2-2--2-2-5-5--5-5--5-5-|
A|-0-0--0-0--0-0-9-9--9-5--5-5-2-2--2-2--2-2-5-5--5-5--5-5-|
D|-0-0--0-0--0-0-9-9--9-5--5-5-2-2--2-2--2-2-5-5--5-5--5-5-|

e|----|
B|----|
G|----|
D|-9~-|  Let note ring.
A|-9~-|
D|-9~-| 

Solo - Bit tricky, will take a while to learn and get right... 
Guitar 1 - (Delay, Overdrive) 

e|----------------------17~----------------------------------|
B|-14h15-14h15-14h15-15-----14h15-14h15-14h15-15-17(x8)------|
G|-----------------------------------------------------------|
D|-----------------------------------------------------------|
A|-----------------------------------------------------------|
E|-----------------------------------------------------------|

e|----------------------17~----22(x8)------------------------|
B|-14h15-14h15-14h15-15---------------22(x5)-20-19-20~-------|
G|-----------------------------------------------------------|
D|-----------------------------------------------------------|
A|-----------------------------------------------------------|
E|-----------------------------------------------------------|

e|----------------------17~----------------------------------|
B|-14h15-14h15-14h15-15-----14h15-15-17(x6)-15-14-15---------|
G|-----------------------------------------------------------|
D|-----------------------------------------------------------|
A|-----------------------------------------------------------|
E|-----------------------------------------------------------|

e|-----------------------------------------------------------|
B|-----------------------------------------------------------|
G|--11----11----12----14-----11----11----12----14------------|
D|-----12----12----12----12-----12----12----12----12---------|
A|-----------------------------------------------------------|
E|-----------------------------------------------------------|

While Guitar 2 - (Overdrive) plays 
e|-----------------------------|
B|-----------------------------|
G|-----------------------------|
D|-0-0--0-0--0-0-9-9--9-5--5-5-|  (x2)
A|-0-0--0-0--0-0-9-9--9-5--5-5-|
D|-0-0--0-0--0-0-9-9--9-5--5-5-|

e|---------------------------------------------------------|
B|---------------------------------------------------------|
G|---------------------------------------------------------|
D|-0-0--0-0--0-0-9-9--9-5--5-5-2-2--2-2--2-2-5-5--5-5--5-5-|
A|-0-0--0-0--0-0-9-9--9-5--5-5-2-2--2-2--2-2-5-5--5-5--5-5-|
D|-0-0--0-0--0-0-9-9--9-5--5-5-2-2--2-2--2-2-5-5--5-5--5-5-|

Play the whole thing twice, then 

Guitar 2 - (Overdrive) 
e|----|
B|----|
G|----|
D|-0~-| Let note ring. 
A|-0~-|
D|-0~-|

Outro - Nearly finished! 
Guitar 2 - (Overdrive)
e|-----------------------------------------------------------------|
B|-----------------------------------------------------------------|
G|-----------------------------------------------------------------|
D|-9-9-9-9-9-9-9-9-7-7-7-7-7-7-7-7-5-5-5-5-5-5-5-5-5-5-5-5-5-5-5-5-| x4
A|-9-9-9-9-9-9-9-9-7-7-7-7-7-7-7-7-5-5-5-5-5-5-5-5-5-5-5-5-5-5-5-5-|
D|-9-9-9-9-9-9-9-9-7-7-7-7-7-7-7-7-5-5-5-5-5-5-5-5-5-5-5-5-5-5-5-5-| 

e|----|
B|----|
G|----|
D|-0~-| Let note ring. 
A|-0~-|
D|-0~-|


/ - slide 
p - pull off
h - hammer on 
~ - vibrato 

That's it! :D

Any questions/criticisms/appreciations/ect. - pjthomas1995@hotmail.co.uk   

Tabbed by Pat Thomas :)
Tap to rate this tab
 
# A B C D E F G H I J K L M N O P Q R S T U V W X Y Z