Guitaretab - guitar tabs
Song name
# A B C D E F G H I J K L M N O P Q R S T U V W X Y Z

Flyleaf - Supernatural Acoustic tab

----------------------------------------------------------------------------
			     Supernatural Acoustic - Flyleaf
----------------------------------------------------------------------------
Tabbed by: veggie_raptors!
Email:vamprissprincess92@yahoo.com

Hey guys! This is an amazing song!! I hadn't found a single tab that was correct 
so i tabbed myself. When i was tabbing this song I noticed that it has two guitars 
so I had tabbed two ways to play certain parts of the song. 
Corrections/ Comments welcome! ^-^

Tuning: standard

Intro/ Verse
e|----------------|                   e|----------------| 
B|----------------|                   B|----------------|
G|-6--9--6--9--8--| 4X        OR      G|-6--9--2--9--8--| 4X
D|-6--9--6--9--8--|                   D|-6--9--2--9--8--|
A|-4--7--4--7--6--|                   A|-4--7-----7--6--|
E|----------------|                   E|----------------|


Pre Chorus
e|----------------|                   |-------------|
B|----------------|                   |-------------|
G|-6--9--6--9--8--|                   |-6--9--2--4--|
D|-6--9--6--9--8--|        OR         |-6--9--2--4--|
A|-4--7--4--7--6--|                   |-4--7-----2--|
E|----------------|                   |-------------|


Chorus
e|----------|                            |-------------|
B|----------|                            |-------------|
G|-6--1--4--|                 OR         |-6--9--2--4--|
D|-6--2--4--|                            |-6--9--2--4--|
A|-4--2--2--|                            |-4--7-----2--|
E|----------|                            |-------------|


e|-------------|                       |----------------|
B|-------------|                       |----------------|
G|-6--4--9--8--|           OR          |-6--9--2--9--8--|
D|-6--4--9--8--|                       |-6--9--2--9--8--|
A|-4--2--7--6--|                       |-4--7-----7--6--|
E|-------------|                       |----------------|


Verse
e|----------------|                   e|----------------| 
B|----------------|                   B|----------------|
G|-6--9--6--9--8--| 4X        OR      G|-6--9--2--9--8--| 4X
D|-6--9--6--9--8--|                   D|-6--9--2--9--8--|
A|-4--7--4--7--6--|                   A|-4--7-----7--6--|
E|----------------|                   E|----------------|


Pre Chorus
e|----------------|                   |-------------|
B|----------------|                   |-------------|
G|-6--9--6--9--8--|                   |-6--9--2--4--|
D|-6--9--6--9--8--|      OR           |-6--9--2--4--|
A|-4--7--4--7--6--|                   |-4--7-----2--|
E|----------------|                   |-------------|


Chorus
e|----------|                            |-------------|
B|----------|                            |-------------|
G|-6--1--4--|             OR             |-6--9--2--4--|
D|-6--2--4--|                            |-6--9--2--4--|
A|-4--2--2--|                            |-4--7-----2--|
E|----------|                            |-------------|

[ Tab from: http://www.guitaretab.com/f/flyleaf/276187.html ]
e|-------------|                       |----------------|
B|-------------|                       |----------------|
G|-6--4--9--8--|           OR          |-6--9--2--9--8--|
D|-6--4--9--8--|                       |-6--9--2--9--8--|
A|-4--2--7--6--|                       |-4--7-----7--6--|
E|-------------|                       |----------------|


Bridge
e|-------------|                      |-------------|
B|-------------|                      |-------------|
G|-6--1--2--4--|            OR        |-6--9--2--4--|
D|-6--2--2--4--|                      |-6--9--2--4--|
A|-4--2-----2--|                      |-4--7-----2--|
E|-------------|                      |-------------|


e|----------------------|            |----------------------|
B|----------------------|            |----------------------|
G|-6--1--2--4--6--1--2--|            |-6--9--2--4--6--9--2--|
D|-6--2--2--4--6--2--2--|      OR    |-6--9--2--4--6--9--2--|
A|-4--2-----2--4--2-----|            |-4--7-----24--7------|
E|----------------------|            |----------------------|


Chorus
e|-------------|                          \
B|-------------|                           \ 
G|-6--9--2--4--|                            \
D|-6--9--2--4--|                             \
A|-4--7-----2--|                              \
E|-------------|                               \
                                                2X
e|----------------|      |-------------|       /
B|----------------|      |-------------|      /
G|-6--9--2--9--8--|  OR  |-6--4--9--8--|     /
D|-6--9--2--9--8--|      |-6--4--9--8--|    /
A|-4--7-----7--6--|      |-4--2--7--6--|   /
E|----------------|      |-------------|  /


Bridge
e|-------------|
B|-------------|
G|-6--9--2--4--|
D|-6--9--2--4--|
A|-4--7-----2--|
E|-------------|


e|----------------------|
B|----------------------|
G|-6--9--2--4--6--9--2--|
D|-6--9--2--4--6--9--2--|
A|-4--7-----2--4--7-----|
E|----------------------|



Her headaches
Constant
Increasing in pain with each passing day
She can't even manage to stand on her own
It's gotten so bad

Now you think of saying
There's no use in praying
Still she bows her head so she can say,
"Thank you for just one more day."

Supernatural patience
Graces her face
And her voice never raises
All because of a love
Never let go of
Never let go of

He has every reason to throw up his fists
In the face of his God who let his mother die
Through all the prayer and tears
She still passed in pain anyway

Now you think of saying
There's no use in praying
Still he bows head so he can say,
"Thank you for ending her pain."

Supernatural patience
Graces his face
And his voice never raises
It's all because of a love
Never let go of
Never let go of

He is teaching me
What love really means

Supernatural patience
Graces his face
And his voice never raises
It's all because of a love
Never let go of

Yes it's supernatural patience
Graces his face
And his voice never raises
All because of a love
Never let go of
Never let go of

He is teaching me
What love truly means
Related for Supernatural Acoustic tab