Song name
# A B C D E F G H I J K L M N O P Q R S T U V W X Y Z

Flyleaf - Tiny Heart tab

-------------------------------------------------------------------------------
			     Tiny Heart - Flyleaf
-------------------------------------------------------------------------------
I think this is about 99% correct. here is the link to my guitar cover of this song:
http://www.youtube.com/watch?v=6SpuRIKNoWw
Hope You Like it!

Tabbed by: paramorefan98
Email:Lauren-Conner@hotmail.com
Tuning:Drop D


Intro/Verse: Play 3 times

e|--8--8--h10---------------------------------8---------------------|
B|-------------8---10-11-10-8-6--10-11-10--6-----6------------------|
G|------------------------------------------------------------------|
D|------------------------------------------------------------------|
A|------------------------------------------------------------------|
D|------------------------------------------------------------------|

Pre Chorus 1:

  4x          1x
e|--8--------|------------------------------------------------------|
B|----6------|------------------------------------------------------|
G|-----------|---------5---7---3------------------------------------|
D|-----------|---3-----5---7---3------------------------------------|
A|-----------|---3-----3---5---1------------------------------------|
D|-----------|---3--------------------------------------------------|
                 4x    4x  4x   4x
Chorus:

e|-------------------------------------------------------------------|
B|-------------------------------------------------------------------|
G|---------------------------5---------------------------------------|
D|---5---0---3---5---0---3---5---------------------------------------|
A|---5---0---3---5---0---3---3---------------------------------------|
D|---5---0---3---5---0---3-------------------------------------------|
     8x  8x  4x  8x  8x  8x  8x

intro/verse

pre chorus 2:
  8x
e|--8--------|------------------------------------------------------|
B|----6------|------------------------------------------------------|
G|-----------|---------5---7---3------------------------------------|
D|-----------|---3-----5---7---3------------------------------------|
A|-----------|---3-----3---5---1------------------------------------|
D|-----------|---3--------------------------------------------------|
                 4x    4x  4x   4x
chorus

Bridge:
 Play this part 3 times.
e|-----------------------|-------------------------------------------|
B|-----------------------|-------------------------------------------|
G|-----------------------|--------5----------------------------------|
D|---5----0----3---------|---5----5----------------------------------|
A|---5----0----3---------|---5----3----------------------------------|
D|---5----0----3---------|---5---------------------------------------|
     8x   8x   8x            8x   8x

 Pre Chorus 3:
e|--8----|-----------------------------------------------------------|
B|----6--|-----------------------------------------------------------|
G|-------|-------5---7---3-------------------------------------------|
D|-------|---3---5---7---3-------------------------------------------|
A|-------|---3---3---5---1-------------------------------------------|
D|-------|---3-------------------------------------------------------|
    16x      4x  4x  4x  4x

Chorus: Play last chord 9 times instead of 8 and you can slide up on the last strum to 
end the song. other than that the chorus is the same.




************************************

| /   slide up
| \   slide down
| h   hammer-on
| p   pull-off
| ~   vibrato
| +   harmonic
| x   Mute note
| b   Bend
| pb  Pre-bend
| br  Bend release
| pbr Pre-bend release
| brb Bend release bend

************************************
Tap to rate this tab
 
# A B C D E F G H I J K L M N O P Q R S T U V W X Y Z