Song name
# A B C D E F G H I J K L M N O P Q R S T U V W X Y Z

Flyleaf - New Horizons tab

-------------------------------------------------------------------------------
                             NEW HORIZONS - Flyleaf
-------------------------------------------------------------------------------
Tabbed by:1san1ty
E-mail:d3aths3ns3@gmail.com

Tuning: D-A-D-G-B-e

INTRO

Clean / Light Overdrive

e|---------------------------------------------------------------------------|
B|---------------------------------------------------------------------------|
G|---------------------------------------------------------------------------|
D|----5----4------9---9-9-9-9-9-9----5----4------7---7-7-7-7-7-7-------------|
A|----5----4------9---9-9-9-9-9-9----5----4------7---7-7-7-7-7-7-------------|
D|----5----4------9---9-9-9-9-9-9----5----4------7---7-7-7-7-7-7-------------|

                                    -Heavy Overdrive-
e|---------------------------------------------------------------------------|
B|---------------------------------------------------------------------------|
G|---------------------------------------------------------------------------|
D|----5----4------9---9-9-9-9-9-9----5----4------7---7-7-7-7-7-7-------------|
A|----5----4------9---9-9-9-9-9-9----5----4------7---7-7-7-7-7-7-------------|
D|----5----4------9---9-9-9-9-9-9----5----4------7---7-7-7-7-7-7-------------|

e|---------------------------------------------------------------------------|
B|---------------------------------------------------------------------------|
G|---------------------------------------------------------------------------|
D|----5----4------9---9-9-9-9-9-9----5----4------7---7-7-7-7-7-7-------------|
A|----5----4------9---9-9-9-9-9-9----5----4------7---7-7-7-7-7-7-------------|
D|----5----4------9---9-9-9-9-9-9----5----4------7---7-7-7-7-7-7-------------|

                                                                   -Let ring-
e|---------------------------------------------------------------------------|
B|---------------------------------------------------------------------------|
G|----------------------------------------------7----------------------------|
D|----5----4------9---9-9-9-9-9-9----5----4-----7-----7-----9-----5----------|
A|----5----4------9---9-9-9-9-9-9----5----4-----5-----7-----9-----5----------|
D|----5----4------9---9-9-9-9-9-9----5----4-----------7-----9-----5----------|


VERSE

Clean / Light Overdrive

The rhythm is pretty simple with these chords you will figure it out.

e|---------------------------------------------------------------------------|
B|---------------------------------------------------------------------------|
G|-----------------------------------7---------------------------------------|
D|----5-------7-------9-------5------7------7------9-------------------------|
A|----5-------7-------9-------5------5------7------9-------------------------|
D|----5-------7-------9-------5-------------7------9---------------------x2--|



PRE VERSE

HEavy Overdrive

e|---------------------------------------------------------------------------|
B|---------------------------------------------------------------------------|
G|---------------------------------------------------------------------------|
D|----5----4------9---9-9-9-9-9-9----5----4------7---7-7-7-7-7-7-------------|
A|----5----4------9---9-9-9-9-9-9----5----4------7---7-7-7-7-7-7-------------|
D|----5----4------9---9-9-9-9-9-9----5----4------7---7-7-7-7-7-7-------------|

                                                                   -Let ring-
e|---------------------------------------------------------------------------|
B|---------------------------------------------------------------------------|
G|----------------------------------------------7----------------------------|
D|----5----4------9---9-9-9-9-9-9----5----4-----7-----7-----9-----5----------|
A|----5----4------9---9-9-9-9-9-9----5----4-----5-----7-----9-----5----------|
D|----5----4------9---9-9-9-9-9-9----5----4-----------7-----9-----5----------|

VERSE 2

Clean / Light Overdrive

e|---------------------------------------------------------------------------|
B|---------------------------------------------------------------------------|
G|-----------------------------------7---------------------------------------|
D|----5-------7-------9-------5------7------7------9-------------------------|
A|----5-------7-------9-------5------5------7------9-------------------------|
D|----5-------7-------9-------5-------------7------9---------------------x2--|

CHORUS

HEavy Overdrive

e|---------------------------------------------------------------------------|
B|---------------------------------------------------------------------------|
G|---------------------------------------------------------------------------|
D|----2-----9-----0-----7-----2----5p4p0---0-0-0-----9p7-7-7-7----9p7-7-7-7--|
A|----2-----9-----0-----7-----2----5p4p0---0-0-0-----9p7-7-7-7----9p7-7-7-7--|
D|----2-----9-----0-----7-----2----5p4p0---0-0-0-----9p7-7-7-7----9p7-7-7-7--|

e|---------------------------------------------------------------------------|
B|---------------------------------------------------------------------------|
G|---------------------------------------------------------------------------|
D|----5----4------9---9-9-9-9-9-9----5----4------7---7-7-7-7-7-7-------------|
A|----5----4------9---9-9-9-9-9-9----5----4------7---7-7-7-7-7-7-------------|
D|----5----4------9---9-9-9-9-9-9----5----4------7---7-7-7-7-7-7-------------|

e|---------------------------------------------------------------------------|
B|---------------------------------------------------------------------------|
G|---------------------------------------------------------------------------|
D|----2----5p4p0---0-0-0-----9p7-7-7-7----9p7-7-7-7--------------------------|
A|----2----5p4p0---0-0-0-----9p7-7-7-7----9p7-7-7-7--------------------------|
D|----2----5p4p0---0-0-0-----9p7-7-7-7----9p7-7-7-7--------------------------|

e|---------------------------------------------------------------------------|
B|---------------------------------------------------------------------------|
G|---------------------------------------------------------------------------|
D|----2----5p4p0---0-0-0-----9p7-7-7-7----9p7-7-7-7--------------------------|
A|----2----5p4p0---0-0-0-----9p7-7-7-7----9p7-7-7-7--------------------------|
D|----2----5p4p0---0-0-0-----9p7-7-7-7----9p7-7-7-7--------------------------|

BRIDGE

e|---------------------------------------------------------------------------|
B|---------------------------------------------------------------------------|
G|---------------------------------------------------------------------------|
D|----5----4------9---9-9-9-9-9-9----5----4------7---7-7-7-7-7-7-------------|
A|----5----4------9---9-9-9-9-9-9----5----4------7---7-7-7-7-7-7-------------|
D|----5----4------9---9-9-9-9-9-9----5----4------7---7-7-7-7-7-7--------x3---|

                                    -Heavy Overdrive-
e|---------------------------------------------------------------------------|
B|---------------------------------------------------------------------------|
G|---------------------------------------------------------------------------|
D|----5----4------9---9-9-9-9-9-9----5----4------7---7-7-7-7-7-7-------------|
A|----5----4------9---9-9-9-9-9-9----5----4------7---7-7-7-7-7-7-------------|
D|----5----4------9---9-9-9-9-9-9----5----4------7---7-7-7-7-7-7-------------|

------
Sorry i got lazy halfway through :)  but the Rhythm should be easy to learn....
This tab will help you play and learn the song and rock
out too it untill next time ;).

Oh this is my First Tab i hope you like it....not 100% but it sounds good I PROMISE 
------

************************************

| p   pull-off

************************************
Tap to rate this tab
 
# A B C D E F G H I J K L M N O P Q R S T U V W X Y Z