Song name
# A B C D E F G H I J K L M N O P Q R S T U V W X Y Z

Flyleaf - New Horizons tab

Band: Flyleaf
Song: New Horizons
Album: New Horizons
Year: 2012

Tabbed By : Stanton Nero

I'ts probably not correct but it sounds ok to me...

Tunning : DADGBE

Intro:

e|---------------------------------------------------------------|
b|---------------------------------------------------------------|
g|---------------------------------------------------------------|
d|-5\-4/-9-9-9999--5\4/-7-7-777-5\-4/-9-9-9999-5\4/-7-7-77-------|
a|-5\-4/-9-9-9999--5\4/-7-7-777-5\-4/-9-9-9999-5\4/-7-7-77-------|
d|---------------------------------------------5\4/-7-7-77-------|

e|----------------------------------------------------------------|
b|----------------------------------------------------------------|
g|----------------------------------------------------------------|
d|-5\-4/-9-9-9999--5\4/-7-7-777-5\-4/-9-9-9999-5\4/-12-77-9-------|
a|-5\-4/-9-9-9999--5\4/-7-7-777-5\-4/-9-9-9999-5\4/-12-77-9-------|
d|-5\-4/-9-9-9999--5\4/-7-7-777-5\-4/-9-9-9999-5\4/-12-77-9-------|


Verse :

        So your tired of being alive...

e|------------------------------|
b|------------------------------|
g|------------------------------|
d|-5-5-5-55-5555-7-7-7/-99-9999-|
a|-5-5-5-55-5555-7-7-7/-99-9999-|
d|------------------------------|

        and you can get your sleep...


e|------------------------------|
b|------------------------------|
g|------------------------------|
d|-5-5-5-55-5555-7-7-7/-99-9999-|
a|-5-5-5-55-5555-7-7-7/-99-9999-|
d|------------------------------|

        bring your normal seas...


e|------------------------------|
b|------------------------------|
g|------------------------------|
d|-5-5-5-55-5555-7-7-7/-99-9999-|
a|-5-5-5-55-5555-7-7-7/-99-9999-|
d|------------------------------|

       in new horizons....


e|------------------------------|
b|------------------------------|
g|------------------------------|
d|-5-5-5-55-5555-7-7-7/-99-9999-|
a|-5-5-5-55-5555-7-7-7/-99-9999-|
d|------------------------------|

Bridge:

e|----------------------------------------------------------------|
b|----------------------------------------------------------------|
g|----------------------------------------------------------------|
d|-5\-4/-9-9-9999--5\4/-7-7-777-5\-4/-9-9-9999-5\4/-12-77-9-------|
a|-5\-4/-9-9-9999--5\4/-7-7-777-5\-4/-9-9-9999-5\4/-12-77-9-------|
d|-5\-4/-9-9-9999--5\4/-7-7-777-5\-4/-9-9-9999-5\4/-12-77-9-------|

Verse 2 :

           You said I'd....


e|------------------------------|
b|------------------------------|
g|------------------------------|
d|-5-5-5-55-5555-7-7-7/-99-9999-|
a|-5-5-5-55-5555-7-7-7/-99-9999-|
d|------------------------------|

     ...well thats in no time...


e|------------------------------|
b|------------------------------|
g|------------------------------|
d|-5-5-5-55-5555-7-7-7/-99-9999-|
a|-5-5-5-55-5555-7-7-7/-99-9999-|
d|------------------------------|


     ...How did we come...
 
e|------------------------------|
b|------------------------------|
g|------------------------------|
d|-5-5-5-55-5555-7-7-7/-99-9999-|
a|-5-5-5-55-5555-7-7-7/-99-9999-|
d|------------------------------|

     ...This was funny...


e|------------------------------|
b|------------------------------|
g|------------------------------|
d|-5-5-5-55-5555-7-7-7/-99-9999-|
a|-5-5-5-55-5555-7-7-7/-99-9999-|
d|------------------------------|

      ...at the dying...


e|------------------------------|
b|------------------------------|
g|------------------------------|
d|-5-5-5-55-5555-7-7-7/-99-9999-|
a|-5-5-5-55-5555-7-7-7/-99-9999-|
d|------------------------------|

     ...the light in you...


e|------------------------------|
b|------------------------------|
g|------------------------------|
d|-5-5-5-55-5555-7-7-7/-99-9999-|
a|-5-5-5-55-5555-7-7-7/-99-9999-|
d|------------------------------|

Chorus:

        Wait!...


e|---------------------------------------------------------------------|
b|---------------------------------------------------------------------|
g|---------------------------------------------------------------------|
d|-5-5-5-55-9-9-9-99-0-0-0-00-7-7-7-77-2-2-2-222\5-0-0-999/7-7-999/7-7-|
a|-5-5-5-55-9-9-9-99-0-0-0-00-7-7-7-77-2-2-2-222\5-0-0-999/7-7-999/7-7-|
d|-5-5-5-55-9-9-9-99-0-0-0-00-7-7-7-77-2-2-2-222\5-0-0-999/7-7-999/7-7-|

      There is no such thing as time

e|------------------------------|
b|------------------------------|
g|------------------------------|
d|-5\-4/-9-9-9999--5\4/-7-7-777-|
a|-5\-4/-9-9-9999--5\4/-7-7-777-|
d|-5\-4/-9-9-9999--5\4/-7-7-777-|

e|--------------------------------------------------------------------|
b|--------------------------------------------------------------------|
g|--------------------------------------------------------------------|
d|-2-2-2-222\5-0-0-999/7-7-999/7-7----2-2-2-222\5-0-0-999/7-7-999/7-7-|
a|-2-2-2-222\5-0-0-999/7-7-999/7-7----2-2-2-222\5-0-0-999/7-7-999/7-7-|
d|-2-2-2-222\5-0-0-999/7-7-999/7-7----2-2-2-222\5-0-0-999/7-7-999/7-7-|

Verse 3 :

        Life floods in...conquest

e|------------------------------|
b|------------------------------|
g|------------------------------|
d|-5-5-5-55-5555-7-7-7/-99-9999-|
a|-5-5-5-55-5555-7-7-7/-99-9999-|
d|------------------------------|

        Life floods in... new quest
e|------------------------------|
b|------------------------------|
g|------------------------------|
d|-5-5-5-55-5555-7-7-7/-99-9999-|
a|-5-5-5-55-5555-7-7-7/-99-9999-|
d|------------------------------|

       Heres a voice...

e|------------------------------|
b|------------------------------|
g|------------------------------|
d|-5-5-5-55-5555-7-7-7/-99-9999-|
a|-5-5-5-55-5555-7-7-7/-99-9999-|
d|------------------------------|

       and a song...

e|------------------------------|
b|------------------------------|
g|------------------------------|
d|-5-5-5-55-5555-7-7-7/-99-9999-|
a|-5-5-5-55-5555-7-7-7/-99-9999-|
d|------------------------------|

       Life floods in...


e|-----------------------------------|
b|-----------------------------------|
g|-----------------------------------|
d|-5\-4/-9-9-9999-5\4/-12-77-9-------|
a|-5\-4/-9-9-9999-5\4/-12-77-9-------|
d|-5\-4/-9-9-9999-5\4/-12-77-9-------|

chorus :

         Wait...



e|---------------------------------------------------------------------|
b|---------------------------------------------------------------------|
g|---------------------------------------------------------------------|
d|-5-5-5-55-9-9-9-99-0-0-0-00-7-7-7-77-2-2-2-222\5-0-0-999/7-7-999/7-7-|
a|-5-5-5-55-9-9-9-99-0-0-0-00-7-7-7-77-2-2-2-222\5-0-0-999/7-7-999/7-7-|
d|-5-5-5-55-9-9-9-99-0-0-0-00-7-7-7-77-2-2-2-222\5-0-0-999/7-7-999/7-7-|

      There is no such thing as time

e|------------------------------|
b|------------------------------|
g|------------------------------|
d|-5\-4/-9-9-9999--5\4/-7-7-777-|
a|-5\-4/-9-9-9999--5\4/-7-7-777-|
d|-5\-4/-9-9-9999--5\4/-7-7-777-|

e|--------------------------------------------------------------------|
b|--------------------------------------------------------------------|
g|--------------------------------------------------------------------|
d|-2-2-2-222\5-0-0-999/7-7-999/7-7----2-2-2-222\5-0-0-999/7-7-999/7-7-|
a|-2-2-2-222\5-0-0-999/7-7-999/7-7----2-2-2-222\5-0-0-999/7-7-999/7-7-|
d|-2-2-2-222\5-0-0-999/7-7-999/7-7----2-2-2-222\5-0-0-999/7-7-999/7-7-|

Bridge 2? :

        When the times keep going wrong...


e|---------------------------------------------------------------|
b|---------------------------------------------------------------|
g|---------------------------------------------------------------|
d|-5\-4/-9-9-9999--5\4/-7-7-777-5\-4/-9-9-9999-5\4/-7-7-77-------|
a|-5\-4/-9-9-9999--5\4/-7-7-777-5\-4/-9-9-9999-5\4/-7-7-77-------|
d|---------------------------------------------------------------|

        When the times keep goin wrong...



e|---------------------------------------------------------------|
b|---------------------------------------------------------------|
g|---------------------------------------------------------------|
d|-5\-4/-9-9-9999--5\4/-7-7-777-5\-4/-9-9-9999-5\4/-7-7-77-------|
a|-5\-4/-9-9-9999--5\4/-7-7-777-5\-4/-9-9-9999-5\4/-7-7-77-------|
d|---------------------------------------------5\4/-7-7-77-------|


chorus :

         Wait...



e|---------------------------------------------------------------------|
b|---------------------------------------------------------------------|
g|---------------------------------------------------------------------|
d|-5-5-5-55-9-9-9-99-0-0-0-00-7-7-7-77-2-2-2-222\5-0-0-999/7-7-999/7-7-|
a|-5-5-5-55-9-9-9-99-0-0-0-00-7-7-7-77-2-2-2-222\5-0-0-999/7-7-999/7-7-|
d|-5-5-5-55-9-9-9-99-0-0-0-00-7-7-7-77-2-2-2-222\5-0-0-999/7-7-999/7-7-|

      There is no such thing as time

e|------------------------------|
b|------------------------------|
g|------------------------------|
d|-5\-4/-9-9-9999--5\4/-7-7-777-|
a|-5\-4/-9-9-9999--5\4/-7-7-777-|
d|-5\-4/-9-9-9999--5\4/-7-7-777-|

e|--------------------------------------------------------------------|
b|--------------------------------------------------------------------|
g|--------------------------------------------------------------------|
d|-2-2-2-222\5-0-0-999/7-7-999/7-7----2-2-2-222\5-0-0-999/7-7-999/7-7-|
a|-2-2-2-222\5-0-0-999/7-7-999/7-7----2-2-2-222\5-0-0-999/7-7-999/7-7-|
d|-2-2-2-222\5-0-0-999/7-7-999/7-7----2-2-2-222\5-0-0-999/7-7-999/7-7-|

e|---------------------------------|
b|---------------------------------|
g|---------------------------------|
d|-2-2-2-222\5-0-0-999/7-7-999/7-7-|
a|-2-2-2-222\5-0-0-999/7-7-999/7-7-|
d|-2-2-2-222\5-0-0-999/7-7-999/7-7-|

e|------------------------------|
b|------------------------------|
g|------------------------------|
d|-5\-4/-9-9-9999--5\4/-7-7-777-|
a|-5\-4/-9-9-9999--5\4/-7-7-777-|
d|-5\-4/-9-9-9999--5\4/-7-7-777-|

e|---------------------------------|
b|---------------------------------|
g|---------------------------------|
d|-2-2-2-222\5-0-0-999/7-7-999/7-7-|
a|-2-2-2-222\5-0-0-999/7-7-999/7-7-|
d|-2-2-2-222\5-0-0-999/7-7-999/7-7-|

Outro :


     When times keep going wrong...


e|-----------------------------|
b|-----------------------------|
g|-----------------------------|
d|-5-5-5-55-5555-7-7-7-77/9999-|
a|-5-5-5-55-5555-7-7-7-77/9999-|
d|-----------------------------|

e|------------------------------|
b|------------------------------|
g|------------------------------|
d|-5-5-5-55-5555-7-7-7/-99-9999-|
a|-5-5-5-55-5555-7-7-7/-99-9999-|
d|------------------------------|
Tap to rate this tab
# A B C D E F G H I J K L M N O P Q R S T U V W X Y Z