Song name
# A B C D E F G H I J K L M N O P Q R S T U V W X Y Z

Flyleaf - Fire Fire tab

-------------------------------------------------------------------------------
                             Fire Fire - Flyleaf
-------------------------------------------------------------------------------
Tuning: Drop C (DAFCGC: tune down a whole step, then drop sixth string to a C)

[Verse] Rythm Guitar
Chord Progession: G  Am  Em|C  D  Em (Repeat)
D|----------------------------------------------------------|
A|----------------------------------------------------------|
F|--6---6---6---6--\7---7---2---2---2---2---2---2---2---2---|
C|----7---7---7---7\--9---9---4---4---4---4---4---4---4---4-|
G|----------------------------------------------------------|
C|----------------------------------------------------------|

                                                             (This sectionplayed only once)
D|----------------------------------------------------------|------------------------------|
A|----------------------------------------------------------|------------------------------|
F|--6---6---6---6--/1---1---2---2---2---2---2---2---2---2---|---------------2---2---2---2--|
C|----7---7---7---7/--2---2---4---4---4---4---4---4---4---4-|2---2-2h4----4---4---4---4--4-|
G|----------------------------------------------------------|------------------------------|
C|----------------------------------------------------------|------------------------------|

[Chorus]
G  Am  Em|C  D  Em
|----------------------------------------------------------------|
|----------------------------------------------------------------|
|----------------------------------------------------------------|
|--7-7-7-7---9-9---4-4-4-4-4-4---0-0-0-0---2-2---4-4-4-4-4-4-4-4-|
|--7-7-7-7---9-9---4-4-4-4-4-4---0-0-0-0---2-2---4-4-4-4-4-4-4-4-|
|--7-7-7-7---9-9---4-4-4-4-4-4---0-0-0-0---2-2---4-4-4-4-4-4-4-4-|

[Verse 2] Note: Bass is playing the root notes from the chorus if you want to fake it on guitar :)
(Octaves played at the end of the chord progression)
|--------------------|
|--------------------|
|--9/11-------\9-----|
|--------------------|
|--7/9--------\7-----|
|--------------------|

[Chorus]
[Verse 3]
[Chorus]
[Bridge] (same guitar as intro/verses)
[Chorus] until the end

************************************

| /   slide up
| \   slide down
| h   hammer-on
| p   pull-off
| ~   vibrato
| +   harmonic
| x   Mute note
| b   Bend
| pb  Pre-bend
| br  Bend release
| pbr Pre-bend release
| brb Bend release bend

************************************
Tap to rate this tab
# A B C D E F G H I J K L M N O P Q R S T U V W X Y Z