Song name
# A B C D E F G H I J K L M N O P Q R S T U V W X Y Z

Flyleaf - Call You Out tab

-------------------------------------------------------------------------------
                             Call You Out - Flyleaf
-------------------------------------------------------------------------------
Tabbed by: Patrick Thomas

Tuning: Drop D

Intro/Verse
e|--------------------------------------------------------------------|
B|------------10------------------------------------------------------|
G|------------12b-----------------------------------------------------|
D|-0--------0~-----(x9)-----------------------------------------------|
A|-0-(x9)---0~--------------------------------------------------------|
D|-0--------0~--------------------------------------------------------|

Chorus
e|--------------------------------------------------------------------|
B|--------------------------------------------------------------------|
G|--------------------------------------------------------------------|
D|-5--5--3--3-----3h5p3---3-------------------------------------------|
A|-5--5--3--3-----------5---5-3/5-------------------------------------|
D|-5--5--3--3---------------------------------------------------------|

Last chorus end with open 

Verse again

Then chorus

Bridge
e|--------------------------------------------------------------------|
B|--------------------------------------------------------------------|
G|--------------------------------------------------------------------|
D|--------------------------------------------------------------------|
A|-----------3--1-----------------------------------------------------|
D|--5--3--0--------3br0-----------------------------------------------|

Then back to opens/mixture of the bridge

Then chorus

Solo
e|-----------------------13-13-13-13------------------------------------|
B|--------------15-15-15------------------------20TP--------------------|
G|-12b14WV-(x2)----------------------12CV--22TP-------------------------|
D|----------------------------------------------------------------------|
A|----------------------------------------------------------------------|
D|----------------------------------------------------------------------|

Bend with wild vibrato on last note

~ - Hold note
b - Bend
br - Bend the release 
h - Hammer on
p - Pull off 
WV - Wild vibrato
CV - Circular vibrato
Tap to rate this tab
 
# A B C D E F G H I J K L M N O P Q R S T U V W X Y Z