Song name
# A B C D E F G H I J K L M N O P Q R S T U V W X Y Z

Flyleaf - New Horizons tab

New Horizons – Flyleaf

Tuning: Drop D
Level: Easy/Medium

Be sure to check out my other tabs! Enjoy!

Intro

E--------------------------------|
B--------------------------------|
G-7-6-11-11-11-11-7-6-9-9-9-9----|
D-5-4-9--9--9--9--5-4-7-7-7-7----|
A-5-4-9--9--9--9--5-4-7-7-7-7----|
D-5-4-9--9--9--9--5-4-7-7-7-7----| x3

E--------------------------------|
B--------------------------------|
G-7-6-11-11-11-11-7-6-14-9-11----|
D-5-4-9--9--9--9--5-4-12-7-9-----|
A-5-4-9--9--9--9--5-4-12-7-9-----|
D-5-4-9--9--9--9--5-4-12-7-9-----|



Verse:

E-----------------------------|
B-----------------------------|
G-7-7-7-7-7-7-9-9-9-9-9-11----|
D-5-5-5-5-5-5-7-7-7-7-7-9-----|
A-5-5-5-5-5-5-7-7-7-7-7-9-----|
D-5-5-5-5-5-5-7-7-7-7-7-9-----| x4





E--------------------------------|
B--------------------------------|
G-7-6-11-11-11-11-7-6-9-9-9-9----|
D-5-4-9--9--9--9--5-4-7-7-7-7----|
A-5-4-9--9--9--9--5-4-7-7-7-7----|
D-5-4-9--9--9--9--5-4-7-7-7-7----| x2

E-----------------------------|
B-----------------------------|
G-7-7-7-7-7-7-9-9-9-9-9-11----|
D-5-5-5-5-5-5-7-7-7-7-7-9-----|
A-5-5-5-5-5-5-7-7-7-7-7-9-----|
D-5-5-5-5-5-5-7-7-7-7-7-9-----| x4


Chorus:

E----------------------------------|
B----------------------------------|
G----------------------------------|
D-2-2-2-9-9-9-9-0-0-0-0-7-7-7-7----|
A-2-2-2-9-9-9-9-0-0-0-0-7-7-7-7----|
D-2-2-2-9-9-9-9-0-0-0-0-7-7-7-7----|

E-------------------------------|
B-------------------------------|
G-------------------------------|
D-2-2-5-2-0-7-7-11-7-0----------|
A-2-2-5-2-0-7-7-11-7-0----------|
D-2-2-5-2-0-7-7-11-7-0----------|

E--------------------------------|
B--------------------------------|
G-7-6-11-11-11-11-7-6-9-9-9-9----|
D-5-4-9--9--9--9--5-4-7-7-7-7----|
A-5-4-9--9--9--9--5-4-7-7-7-7----|
D-5-4-9--9--9--9--5-4-7-7-7-7----|




E-------------------------------|
B-------------------------------|
G-------------------------------|
D-2-2-5-2-0-7-7-11-7-0----------|
A-2-2-5-2-0-7-7-11-7-0----------|
D-2-2-5-2-0-7-7-11-7-0----------|


Verse:

E-----------------------------|
B-----------------------------|
G-7-7-7-7-7-7-9-9-9-9-9-11----|
D-5-5-5-5-5-5-7-7-7-7-7-9-----|
A-5-5-5-5-5-5-7-7-7-7-7-9-----|
D-5-5-5-5-5-5-7-7-7-7-7-9-----| x4

E--------------------------------|
B--------------------------------|
G-7-6-11-11-11-11-7-6-14-9-11----|
D-5-4-9--9--9--9--5-4-12-7-9-----|
A-5-4-9--9--9--9--5-4-12-7-9-----|
D-5-4-9--9--9--9--5-4-12-7-9-----|


Chorus:

E----------------------------------|
B----------------------------------|
G----------------------------------|
D-2-2-2-9-9-9-9-0-0-0-0-7-7-7-7----|
A-2-2-2-9-9-9-9-0-0-0-0-7-7-7-7----|
D-2-2-2-9-9-9-9-0-0-0-0-7-7-7-7----|

E-------------------------------|
B-------------------------------|
G-------------------------------|
D-2-2-5-2-0-7-7-11-7-0----------|
A-2-2-5-2-0-7-7-11-7-0----------|
D-2-2-5-2-0-7-7-11-7-0----------|

E--------------------------------|
B--------------------------------|
G-7-6-11-11-11-11-7-6-9-9-9-9----|
D-5-4-9--9--9--9--5-4-7-7-7-7----|
A-5-4-9--9--9--9--5-4-7-7-7-7----|
D-5-4-9--9--9--9--5-4-7-7-7-7----|

E-------------------------------|
B-------------------------------|
G-------------------------------|
D-2-2-5-2-0-7-7-11-7-0----------|
A-2-2-5-2-0-7-7-11-7-0----------|
D-2-2-5-2-0-7-7-11-7-0----------|

Bridge:

E--------------------------------|
B--------------------------------|
G-7-6-11-11-11-11-7-6-9-9-9-9----|
D-5-4-9--9--9--9--5-4-7-7-7-7----|
A-5-4-9--9--9--9--5-4-7-7-7-7----|
D-5-4-9--9--9--9--5-4-7-7-7-7----| x4


Chorus:

E----------------------------------|
B----------------------------------|
G----------------------------------|
D-2-2-2-9-9-9-9-0-0-0-0-7-7-7-7----|
A-2-2-2-9-9-9-9-0-0-0-0-7-7-7-7----|
D-2-2-2-9-9-9-9-0-0-0-0-7-7-7-7----|


E-------------------------------|
B-------------------------------|
G-------------------------------|
D-2-2-5-2-0-7-7-11-7-0----------|
A-2-2-5-2-0-7-7-11-7-0----------|
D-2-2-5-2-0-7-7-11-7-0----------|

E--------------------------------|
B--------------------------------|
G-7-6-11-11-11-11-7-6-9-9-9-9----|
D-5-4-9--9--9--9--5-4-7-7-7-7----|
A-5-4-9--9--9--9--5-4-7-7-7-7----|
D-5-4-9--9--9--9--5-4-7-7-7-7----|

E-------------------------------|
B-------------------------------|
G-------------------------------|
D-2-2-5-2-0-7-7-11-7-0----------|
A-2-2-5-2-0-7-7-11-7-0----------|
D-2-2-5-2-0-7-7-11-7-0----------|


Chorus:

E----------------------------------|
B----------------------------------|
G----------------------------------|
D-2-2-2-9-9-9-9-0-0-0-0-7-7-7-7----|
A-2-2-2-9-9-9-9-0-0-0-0-7-7-7-7----|
D-2-2-2-9-9-9-9-0-0-0-0-7-7-7-7----|

E-------------------------------|
B-------------------------------|
G-------------------------------|
D-2-2-5-2-0-7-7-11-7-0----------|
A-2-2-5-2-0-7-7-11-7-0----------|
D-2-2-5-2-0-7-7-11-7-0----------|

E--------------------------------|
B--------------------------------|
G-7-6-11-11-11-11-7-6-9-9-9-9----|
D-5-4-9--9--9--9--5-4-7-7-7-7----|
A-5-4-9--9--9--9--5-4-7-7-7-7----|
D-5-4-9--9--9--9--5-4-7-7-7-7----|


E-------------------------------|
B-------------------------------|
G-------------------------------|
D-2-2-5-2-0-7-7-11-7-0----------|
A-2-2-5-2-0-7-7-11-7-0----------|
D-2-2-5-2-0-7-7-11-7-0----------|

Outro:

E--------------------------------|
B--------------------------------|
G-7-6-11-11-11-11-7-6-9-9-9-9----|
D-5-4-9--9--9--9--5-4-7-7-7-7----|
A-5-4-9--9--9--9--5-4-7-7-7-7----|
D-5-4-9--9--9--9--5-4-7-7-7-7----|

E------------------------------------|
B------------------------------------|
G-7-7-7-7-7-7-7-7-9-9-9-9-9-9-9-9----|
D-5-5-5-5-5-5-5-5-7-7-7-7-7-7-7-7----|
A-5-5-5-5-5-5-5-5-7-7-7-7-7-7-7-7----|
D-5-5-5-5-5-5-5-5-7-7-7-7-7-7-7-7----|

That’s it! Thanks for viewing my tab. If you have any questions or comments, please 
comment. Have fun, and God bless!
Tap to rate this tab
 
# A B C D E F G H I J K L M N O P Q R S T U V W X Y Z