Song name
# A B C D E F G H I J K L M N O P Q R S T U V W X Y Z

Flyleaf - Fire Fire tab

The song is full of change of timing, and they are indicated on the top of the tab. The 
tab is written for only ONE GUITAR.
Drop D tuning, Key E
DADGBe
Tabbed by Galva94

Intro
3/4                         4/4
|--------------------------|---------------------------------|
|--------------------------|---------------------------------|
|--------------------------|---------------------------------|
|-9---9---9---9---10--10---|-5---5---5---5---5---5---5---5---|
|---10--10--10--10--12--12-|---7---7---7---7---7---7---7---7-|
|--------------------------|---------------------------------|

3/4                         4/4
|--------------------------|---------------------------------|
|--------------------------|---------------------------------|
|--------------------------|---------------------------------|
|-9---9---9---9---4---4----|-5---5---5---5---5---5---5---5---|
|---10--10--10--10--5---5--|---7---7---7---7---7---7---7---7-|
|--------------------------|---------------------------------|

Verse
3/4                         4/4
|--------------------------|---------------------------------|
|--------------------------|---------------------------------|
|--------------------------|---------------------------------|
|-9---9---9---9---10--10---|-5---5---5---5---5---5---5---5---|
|---10--10--10--10--12--12-|---7---7---7---7---7---7---7---7-|
|--------------------------|---------------------------------|
3/4                         8/4
|--------------------------|---------------------------------|
|--------------------------|---------------------------------|
|--------------------------|---------------------------------|
|-9---9---9---9---4---4----|-5---5---5---5---5---5---5-------|
|---10--10--10--10--5---5--|---7---7---7---7---7---7---7-5---|
|--------------------------|---------------------------------|

|----------------------------------|
|----------------------------------|
|----------------------------------|
|---------------5---5---5---5------|
|-5---5---5h7-----7---7---7---7----|
|----------------------------------|

3/4                         4/4
|--------------------------|---------------------------------|
|--------------------------|---------------------------------|
|--------------------------|---------------------------------|
|-9---9---9---9---10--10---|-5---5---5---5---5---5---5---5---|
|---10--10--10--10--12--12-|---7---7---7---7---7---7---7---7-|
|--------------------------|---------------------------------|

3/4                         4/4
|--------------------------|---------------------------------|
|--------------------------|---------------------------------|
|--------------------------|---------------------------------|
|-9---9---9---9---4---4----|-5---5---5---5---5---------------|
|---10--10--10--10--5---5--|---7---7---7---7-----------------|
|--------------------------|---------------------------------|


Chorus

3/4
|-----------------------|-----------------------|
|-----------------------|-----------------------|
|-----------------------|-----------------------|
|-5---5---5---5---7---7-|-2---2---2---2---2---2-|
|-5---5---5---5---7---7-|-2---2---2---2---2---2-|
|-5---5---5---5---7---7-|-2---2---2---2---2---2-|
  Fire            fire    fire

                         4/4
|-----------------------|-------------------------------|
|-----------------------|-5---5---5---5---5---5---3---3-|
|-----------------------|-------------------------------|
|-5---5---5---5---7---7-|-2---2---2---2---2---2---0---0-|
|-5---5---5---5---7---7-|-2---2---2---2---2---2---0---0-|
|-5---5---5---5---7---7-|-2---2---2---2---2---2---0---0-|
  Fire from the   tongue- liar


3/4                      4/4
|-----------------------|-------------------------------|
|-----------------------|-------------------------------|
|-----------------------|-------------------------------|
|-----------------------|-------------------------------|
|-----------------------|-------------------------------|
|-5---5---5---5---7---7-|-2---2---2---2---2---2---2---2-|
  .   .   .   .   .   .   .   .   .   .   .   .   .   .

  You're ashamed- what-   from

3/4                     4/4
|-----------------------|-------------------------------|
|-----------------------|-5---5---5---5---5---5---3---3-|
|-----------------------|-------------------------------|
|-----------------------|-2---2---2---2---2---2---0---0-|
|-----------------------|-2---2---2---2---2---2---0---0-|
|-5---5---5---5---7---7-|-2---2---2---2---2---2---0---0-|
  .   .   .   .   .   .
  Crying cause-   father- drunk

3/4                      4/4
|-----------------------|-------------------------------|
|-----------------------|-------------------------------|
|-----------------------|-------------------------------|
|-----------------------|-------------------------------|
|-----------------------|-------------------------------|
|-5---5---5---5---7---7-|-2---2---2---2---2---2---2---2-|
  .   .   .   .   .   .   .   .   .   .   .   .   .   .
  We can't die    because-young                   At least

3/4                      8/4
|-----------------------|-------------------------------|
|-----------------------|-5---5---5---5---5---5---3---3-|
|-----------------------|-------------------------------|
|-----------------------|-2---2---2---2---2---2---0---0-|
|-----------------------|-2---2---2---2---2---2---0---0-|
|-5---5---5---5---7---7-|-2---2---2---2---2---2---0---0-|
  .   .   .   .   .   .
 -that what we heard in a song



|-------------------------------|
|-5---5---5---5---5---5---3---3-|
|-------------------------------|
|-2---2---2---2---2---2---0---0-|
|-2---2---2---2---2---2---0---0-|
|-2---2---2---2---2---2---0---0-|

3/4
|-----------------------|-----------------------|
|-----------------------|-----------------------|
|-----------------------|-----------------------|
|-5---5---5---5---7---7-|-2---2---2---2---2---2-|
|-5---5---5---5---7---7-|-2---2---2---2---2---2-|
|-5---5---5---5---7---7-|-2---2---2---2---2---2-|
  Fire            Fire    Fire

                         4/4
|-----------------------|-------------------------------|
|-----------------------|-5---5---5---5---5---5---3---3-|
|-----------------------|-------------------------------|
|-5---5---5---5---7---7-|-2---2---2---2---2---2---0---0-|
|-5---5---5---5---7---7-|-2---2---2---2---2---2---0---0-|
|-5---5---5---5---7---7-|-2---2---2---2---2---2---0---0-|
  Fire from the   tongue- liar

3/4
|-----------------------|-----------------------|
|-----------------------|-----------------------|
|-----------------------|-----------------------|
|-5---5---5---5---7---7-|-2---2---2---2---2---2-|
|-5---5---5---5---7---7-|-2---2---2---2---2---2-|
|-5---5---5---5---7---7-|-2---2---2---2---2---2-|
  Fire            Fire    Fire

                         8/4
|-----------------------|-------------------------------|
|-----------------------|-5---5---5---5---5---5---3---3-|
|-----------------------|-------------------------------|
|-5---5---5---5---7---7-|-2---2---2---2---2---2---0---0-|
|-5---5---5---5---7---7-|-2---2---2---2---2---2---0---0-|
|-5---5---5---5---7---7-|-2---2---2---2---2---2---0---0-|
  Fire from the   tongue- liars


(This part is not perfect. I think it's pretty random)
(bass continue playing like in the first chorus)

3/4                               4/4
|---------3-------------|---------3---------------3-----|
|-3-5-3---------3-5-3---|-3-5-3-----------3-5-3---------|
|-----------------------|-------------------------------|
|-----------------------|-------------------------------|
|-----------------------|-------------------------------|
|-----------------------|-------------------------------|
  You're ashamed- what-   done

3/4                               4/4
|-----------------------|-------------------------------|
|-----------------------|-5---5---5---5---5---5---3---3-|
|-----------------------|-------------------------------|
|-----------------------|-------------------------------|
|-----------------------|-------------------------------|
|-----------------------|-------------------------------|
  Crying cause-   father- wrong




3/4                               4/4
|-------3-------------3-|-------3-------------3-5-------|
|-3-5-5---5-----3-5-5---|-3-5-5---5-----3-5-5-----------|
|-----------------------|-------------------------------|
|-----------------------|-------------------------------|
|-----------------------|-------------------------------|
|-----------------------|-------------------------------|
  Tying to be   somethin-new

3/4                               8/4
|-------3--//---12------|-------------------------------|
|-3-5-5-----------------|-----5---5---5---5---5---3---3-|
|-----------------------|-------------------------------|
|-----------------------|-------------------------------|
|-----------------------|-------------------------------|
|-----------------------|-------------------------------|
 -that yow were-thing to-prove

|-------------------------------|
|-5---5---5---5---5---5---3---3-|
|-------------------------------|
|-------------------------------|
|-------------------------------|
|-------------------------------|


Bridge part1 (sound like the intro) 2x
3/4                                     4/4
|--------------------------|---------------------------------|
|--------------------------|---------------------------------|
|--------------------------|---------------------------------|
|-9---9---9---9---10--10---|-5---5---5---5---5---5---5---5---|
|---10--10--10--10--12--12-|---7---7---7---7---7---7---7---7-|
|--------------------------|---------------------------------|
-you confuse from glory's    fire

3/4                                     4/4
|--------------------------|---------------------------------|
|--------------------------|---------------------------------|
|--------------------------|---------------------------------|
|-9---9---9---9---4---4----|-5---5---5---5---5---5---5---5---|
|---10--10--10--10--5---5--|---7---7---7---7---7---7---7---7-|
|--------------------------|---------------------------------|
 -fire from the   tongue of  liars

Bridge part2 (different timing) 2x
3/4                                     3/4
|--------------------------|-------------------------|
|--------------------------|-------------------------|
|--------------------------|-------------------------|
|-9---9---9---9---10--10---|-5---5---5---5---5---5---|
|---10--10--10--10--12--12-|---7---7---7---7---7---7-|
|--------------------------|-------------------------|
  Fire            fire       fire

3/4                                     4/4
|--------------------------|---------------------------------|
|--------------------------|---------------------------------|
|--------------------------|---------------------------------|
|-9---9---9---9---4---4----|-5---5---5---5---5---5---5---5---|
|---10--10--10--10--5---5--|---7---7---7---7---7---7---7---7-|
|--------------------------|---------------------------------|
  Fire from the   tongue of  liars


Chorus again

End.
Tap to rate this tab
 
# A B C D E F G H I J K L M N O P Q R S T U V W X Y Z