Song name
# A B C D E F G H I J K L M N O P Q R S T U V W X Y Z

Flyleaf - Great Love tab

Drop D tuning, Key F#
DADGBe
Tabbed by Galva94

Intro
|-9--9--9--9--9--9--9--9--|-9--9--9--9--12-12-12----|
|-10-10-10-10-10-10-10-10-|-10-10-10-10-10-10-10-0--|
|-9--9--9--9--9--9--9--9--|-9--9--9--9--9--9--9-----|
|-------------------------|-------------------------|
|-------------------------|-------------------------|
|-------------------------|-------------------------|
  1     +     2     +       3     +     4     +

|-9--9--9--9--9--9--9--9--|-9--9--9--9--12-12-12----|
|-10-10-10-10-10-10-10-10-|-13-13-13-10-10-10-10-0--|
|-11-11-11-11-11-11-11-11-|-11-11-11-11-11-11-11----|
|-------------------------|-------------------------|
|-------------------------|-------------------------|
|-------------------------|-------------------------|
  1     +     2     +       3     +     4     +

|-------------------------|-------------------------|
|-9--9--9--9--9--9--9--9--|-12-12-12-12-9--9--9--\--|
|-10-10-10-10-10-10-10-10-|-10-10-10-10-10-10-10-\--|
|-11-11-11-11-11-11-11-11-|-11-11-11-11-11-11-11-\--|
|-------------------------|-------------------------|
|-------------------------|-------------------------|
  1     +     2     +       3     +     4     +

Pre chorus:
|-------------------------|
|-------------------------|
|-------------------------|
|-4--4--4--4--4--4--4--4--|
|-4--4--4--4--4--4--4--4--|
|-4--4--4--4--4--4--4--4--|
  1  +  2  +  3  +  4  +    

Chorus
|-------------------------|-------------------------|
|-------------------------|-------------------------|
|-------------------------|-------------------------|
|-0--0--0--0--0--0--0--0--|-2--2--2--2--2--2--2--2/-|
|-0--0--0--0--0--0--0--0--|-2--2--2--2--2--2--2--2/-|
|-0--0--0--0--0--0--0--0--|-2--2--2--2--2--2--2--2/-|
  1  +  2  +  3  +  4  +    1  +  2  +  3  +  4  +     
  Great love..              Setting the world on fire

|-------------------------|-----------------------------|
|-------------------------|-----------------------------|
|-------------------------|-------------9/11119-11111111|
|-9--9--9--9--9--9--9--9/-|-12-12-12-12-x-x-x-x-x-x-x-x-|
|-9--9--9--9--9--9--9--9/-|-12-12-12-12-7/9-9-7/9-9-9-9-|
|-9--9--9--9--9--9--9--9/-|-12-12-12-12-----------------|
  1  +  2  +  3  +  4  +    1  +  2  +  3   +   4   +
 I am in awe of who you are And its your-living for

VERSE 
(part1)

|-9--9--9--9--9--9--9--9--|-9--9--9--9--9--9--9-----|
|-10-10-10-10-10-10-10-10-|-10-10-10-10-10-10-10-0--|
|-9--9--9--9--9--9--9--9--|-9--9--9--9--9--9--9-----|
|-------------------------|-------------------------|
|-------------------------|-------------------------|
|-------------------------|-------------------------|
  1     +     2     +       3     +     4     +
  Cant you feel Iím         drawing near

|-9--9--9--9--9--9--9--9--|-9--9--9--9--12-12-12----|
|-10-10-10-10-10-10-10-10-|-13-13-13-10-10-10-10-0--|
|-11-11-11-11-11-11-11-11-|-11-11-11-11-11-11-11----|
|-------------------------|-------------------------|
|-------------------------|-------------------------|
|-------------------------|-------------------------|
  1     +     2     +       3     +     4     +
  The place that broke your hear cut up and 

|-------------------------|-------------------------|
|-9--9--9--9--9--9--9--9--|-9--9--9--9--9--9--9--9--|
|-10-10-10-10-10-10-10-10-|-10-10-10-10-10-10-10-10-|
|-11-11-11-11-11-11-11-11-|-11-11-11-11-11-11-11-11-|
|-------------------------|-------------------------|
|-------------------------|-------------------------|
  1     +     2     +       3     +     4     +
  Scarred                                        the


|-------------------------|-------------------------|
|-9--9--9--9--9--9--9--9--|-9--9--9--9--9--9--9--9--|
|-10-10-10-10-10-10-10-10-|-10-10-10-10-10-10-10-10-|
|-11-11-11-11-11-11-11-11-|-11-11-11-11-11-11-11-11-|
|-------------------------|-------------------------|
|-------------------------|-------------------------|
  1     +     2     +       3     +     4     +
  Down is breaking  my      bodyís shaking

(part2)

|-9--9--9--9--9--9--9--9--|-9--9--9--9--9--9--9-----|
|-10-10-10-10-10-10-10-10-|-10-10-10-10-10-10-10-0--|
|-9--9--9--9--9--9--9--9--|-9--9--9--9--9--9--9-----|
|-------------------------|-------------------------|
|-------------------------|-------------------------|
|-------------------------|-------------------------|
  1     +     2     +       3     +     4     +
  Oh the secret         memories              you

|-9--9--9--9--9--9--9--9--|-9--9--9--9--12-12-12----|
|-10-10-10-10-10-10-10-10-|-13-13-13-10-10-10-10-0--|
|-11-11-11-11-11-11-11-11-|-11-11-11-11-11-11-11----|
|-------------------------|-------------------------|
|-------------------------|-------------------------|
|-------------------------|-------------------------|
  1     +     2     +       3     +     4     +
  Keep  ignoring the        soul that you can 

|-------------------------|-------------------------|
|-9--9--9--9--9--8--8--8--|-8-----------------------|
|-10-10-10-10-10-10-10-10-|-10-10-10-10-10-9--9--9--|
|-11-11-11-11-11-11-11-11-|-11-11-11-11-11-11-11-11-|
|-------------------------|-------------------------|
|-------------------------|-------------------------|
  1     +     2     +       3     +     4     +
  Sleep                                         


|-------------------------|-------------------------|
|-9--9--9--9--9--9--9--9--|-9--9--9--9--9--9--9--9--|
|-10-10-10-10-10-10-10-10-|-10-10-10-10-10-10-10-10-|
|-11-11-11-11-11-11-11-11-|-11-11-11-11-11-11-11-11-|
|-------------------------|-------------------------|
|-------------------------|-------------------------|
  1     +     2     +       3     +     4     +
  Down is breaking  my      bodyís shaking

Pre Chorus (1x)

Chorus (2x)

Verse (1x)

Pre Chorus (1x)

Chorus (2x)

Bridge (2X)

|-------------------------|-------------------------|
|-------------------------|-------------------------|
|-------------------------|-------------------------|
|-------------------------|----12-12-12-12-11-11-11-|
|-x--12-12-12-12-11-11-11-|-11----------------------|
|-------------------------|-------------------------|
  1     +     2     +       3     +     4     +

|-------------------------|
|-------------------------|
|-------------------------|
|-4--4--4--4--4--4--4--4--|
|-4--4--4--4--4--4--4--4--|
|-4--4--4--4--4--4--4--4--|
  1  +  2  +  3  +  4  +    

Verse (1x) (sound like the intro)

Pre Chorus v2
4/4                       3/4
|-------------------------|------------------|
|-------------------------|------------------|
|-------------------------|------------------|
|-4--4--4--4--4--4--4--4--|-4--4--4--4--4----|
|-4--4--4--4--4--4--4--4--|-4--4--4--4--4----|
|-4--4--4--4--4--4--4--4--|-4--4--4--4--4----|

  1  +  2  +  3  +  4  +    1  +  2  +  3  + 

Chorus (2x)

Post Chorus 
|-------------------------|-------------------------|
|-------------------------|-------------------------|
|-------------------------|-------------------------|
|-9--9--9--9--9--9--9--9/-|-12-12-12-12-12-12-12-12-|
|-9--9--9--9--9--9--9--9/-|-12-12-12-12-12-12-12-12-|
|-9--9--9--9--9--9--9--9/-|-12-12-12-12-12-12-12-12-|
  1  +  2  +  3  +  4  +    1  +  2  +  3  +  4  +
  You are the one im look-  And I am yours forevermore

End with:

|-------------------------|
|-------------------------|
|-------------------------|
|-4--4--4--4--4--4--4--4\-|
|-4--4--4--4--4--4--4--4\-|
|-4--4--4--4--4--4--4--4\-|
  1  +  2  +  3  +  4  +    
  And I am yours forevermore
Tap to rate this tab
 
# A B C D E F G H I J K L M N O P Q R S T U V W X Y Z