Song name
# A B C D E F G H I J K L M N O P Q R S T U V W X Y Z

Flyleaf - Great Love tab

Tuning: Drop D (DADGBe)
Key: F# Major (F# G# A# B C# D# E#)
Tabbed by Acknown3
Based off of chords by THEAlexPKeaton1


Intro (0:00-0:10)

|-9--9--9--9--9--9--9--9--|-9--9--9--9--9--9--9----|
|-10-10-10-10-10-10-10-10-|-10-10-10-10-10-10-10-0-|
|-9--9--9--9--9--9--9--9--|-9--9--9--9--9--9--9----|
|-------------------------|------------------------|
|-------------------------|------------------------|
|-------------------------|------------------------|


|-9--9--9--9--9--9--9--9--|-9--9--9--9--12-12-12---|
|-10-10-10-10-10-10-10-10-|-12-12-12-10-10-10-10-0-|
|-11-11-11-11-11-11-11-11-|-11-11-11-11-11-11-11---|
|-------------------------|------------------------|
|-------------------------|------------------------|
|-------------------------|------------------------|


|-------------------------|------------------------|
|-10-10-10-10-10-10-10-10-|-12-12-12-12-10-\-------|
|-9--9--9--9--9--9--9--9--|-9--9--9--9--9--\-------|
|-9--9--9--9--9--9--9--9--|-9--9--9--9--9--\-------|
|-------------------------|------------------------|
|-------------------------|------------------------|


Pre chorus: (0:11-0:14)

|---------------------------------|
|---------------------------------|
|---------------------------------|
|-4---4---4---4---4---4---4---4---|
|-4---4---4---4---4---4---4---4---|
|-4---4---4---4---4---4---4---4---|


Chorus (0:14-0:29)

|---------------------------------|----------------(9-9-9-7-7-5-7-\)|
|---------------------------------|---------------------------------|
|---------------------------------|---------------------------------|
|-0---0---0-0-0-0-0-0-0-0-0-0-0-0-|-2-2-2-2-2-2-2-2-2-2-2-2-2-2-2-2-|
|-0---0---0-0-0-0-0-0-0-0-0-0-0-0-|-2-2-2-2-2-2-2-2-2-2-2-2-2-2-2-2-|
|-0---0---0-0-0-0-0-0-0-0-0-0-0-0-|-2-2-2-2-2-2-2-2-2-2-2-2-2-2-2-2-|

  Great   love            Setting the world on fire


|---------------------------------|-----------------------------------------|
|---------------------------------|-----------------------------------------|
|-4-4-4-4-4-4-4-4-4-4-4-4-4-4-4-4-|-7-7-7-7-7-7-7-7---/11-11-9--11-11-11-11-|
|-4-4-4-4-4-4-4-4-4-4-4-4-4-4-4-4-|-7-7-7-7-7-7-7-7----x--x--x--x--x--x--x--|
|-2-2-2-2-2-2-2-2-2-2-2-2-2-2-2-2-|-5-5-5-5-5-5-5-5---/9--9--7--9--9--9--9--|
|---------------------------------|-----------------------------------------|

  I am in awe of who You are        And its your love I'm living for


VERSE (0:29-1:01)

|-9--9--9--9--9--9--9--9--|-9--9--9--9--9--9--9----|
|-10-10-10-10-10-10-10-10-|-10-10-10-10-10-10-10-0-|
|-9--9--9--9--9--9--9--9--|-9--9--9--9--9--9--9----|
|-------------------------|------------------------|
|-------------------------|------------------------|
|-------------------------|------------------------|

  Cant you feel I'm         drawing near


|-9--9--9--9--9--9--9--9--|-9--9--9--9--12-12-12---|
|-10-10-10-10-10-10-10-10-|-12-12-12-10-10-10-10-0-|
|-11-11-11-11-11-11-11-11-|-11-11-11-11-11-11-11---|
|-------------------------|------------------------|
|-------------------------|------------------------|
|-------------------------|------------------------|

  The place that broke your heart cut up and


|-------------------------|-------------------------|
|-10-10-10-10-10-10-10-10-|-10-10-10-10-10-10-10-10-|
|-9--9--9--9--9--9--9--9--|-9--9--9--9--9--9--9--9--|
|-9--9--9--9--9--9--9--9--|-9--9--9--9--9--9--9--9--|
|-------------------------|-------------------------|
|-------------------------|-------------------------|

  Scarred                                        the


|-------------------------|-------------------------|
|-5--5--5--5--5--5--5--5--|-5--5--5--5--5--5--5--5--|
|-4--4--4--4--4--4--4--4--|-4--4--4--4--4--4--4--4--|
|-4--4--4--4--4--4--4--4--|-4--4--4--4--4--4--4--4--|
|-------------------------|-------------------------|
|-------------------------|-------------------------|

  Dawn is breaking  my      body's shaking


|-9--9--9--9--9--9--9--9--|-9--9--9--9--9--9--9----|
|-10-10-10-10-10-10-10-10-|-10-10-10-10-10-10-10-0-|
|-9--9--9--9--9--9--9--9--|-9--9--9--9--9--9--9----|
|-------------------------|------------------------|
|-------------------------|------------------------|
|-------------------------|------------------------|

  Oh the secret         memories              you


|-9--9--9--9--9--9--9--9--|-9--9--9--9--12-12-12---|
|-10-10-10-10-10-10-10-10-|-12-12-12-10-10-10-10-0-|
|-11-11-11-11-11-11-11-11-|-11-11-11-11-11-11-11---|
|-------------------------|------------------------|
|-------------------------|------------------------|
|-------------------------|------------------------|

  Keep  ignoring the        soul that you can


|-------------------------|-------------------------|
|-10-10-10-10-10-10-10-10-|-10-10-10-10-10-10-10-10-|
|-9--9--9--9--9--9--9--9--|-9--9--9--9--9--9--9--9--|
|-9--9--9--9--9--9--9--9--|-9--9--9--9--9--9--9--9--|
|-------------------------|-------------------------|
|-------------------------|-------------------------|

  Sleep


|-------------------------|-------------------------|
|-5--5--5--5--5--5--5--5--|-5--5--5--5--5--5--5--5--|
|-4--4--4--4--4--4--4--4--|-4--4--4--4--4--4--4--4--|
|-4--4--4--4--4--4--4--4--|-4--4--4--4--4--4--4--4--|
|-------------------------|-------------------------|
|-------------------------|-------------------------|

  Dawn is breaking  my      body's shaking


Pre Chorus (1x) (1:01-1:04)


Chorus (2x) (1:05-1:33)


Verse (1x) (1:34-1:51)


Pre Chorus (1x) (1:52-1:55)


Chorus (2x) (1:56-2:24)


Bridge (2X) (2:25-2:39)

|-------------------------|-------------------------|
|-------------------------|-------------------------|
|-------------------------|-------------------------|
|-------------------------|----12-12-12-12-11-11-11-|
|-12-12-12-12-12-11-11-11-|-11----------------------|
|-------------------------|-------------------------|


|-------------------------|
|-------------------------|
|-------------------------|
|-4--4--4--4--4--4--4--4--|
|-4--4--4--4--4--4--4--4--|
|-4--4--4--4--4--4--4--4--|


Verse (1x) (2:39-2:50)


Pre Chorus v2 (2:50-2:55)

|-------------------------|------------------|
|-------------------------|------------------|
|-------------------------|------------------|
|-4--4--4--4--4--4--4--4--|-4--4--4--4--4----|
|-4--4--4--4--4--4--4--4--|-4--4--4--4--4----|
|-4--4--4--4--4--4--4--4--|-4--4--4--4--4----|


Chorus (2x) (2:56-3:24)


Post Chorus (3:25-3:32)

|---------------------------------|---------------------------------|
|---------------------------------|---------------------------------|
|-4-4-4-4-4-4-4-4-4-4-4-4-4-4-4-4-|-7-7-7-7-7-7-7-7-7-7-7-7-7-7-7-7-|
|-4-4-4-4-4-4-4-4-4-4-4-4-4-4-4-4-|-7-7-7-7-7-7-7-7-7-7-7-7-7-7-7-7-|
|-2-2-2-2-2-2-2-2-2-2-2-2-2-2-2-2-|-5-5-5-5-5-5-5-5-5-5-5-5-5-5-5-5-|
|---------------------------------|---------------------------------|

  You are the one I'm looking for    And I am Yours forevermore


Outro: (3:32-3:42)

|-------------------------------|
|-------------------------------|
|-------------------------------|
|-4---4---4---4---4---4---4-\---|
|-4---4---4---4---4---4---4-\---|
|-4---4---4---4---4---4---4-\---|

  And I am Yours forevermore


Note: There are some background guitar parts that was not able to tab out. I've only 
recently picked up guitar and am not good with ear training. Feel free to correct.
Tap to rate this tab
# A B C D E F G H I J K L M N O P Q R S T U V W X Y Z