Song name
# A B C D E F G H I J K L M N O P Q R S T U V W X Y Z

Flyleaf - Cage On The Ground tab

Tuning: Drop D - DADGBe

 /   slide up
 \   slide down
 ~   let ring
 *   palm mute
 ()  optional
 b   bend
 r   release bend

Guitar I - Lead
Guitar II -Rhythm

INTRO:

Guitar I
e|------------------------------------------------------------------------|
B|---7-/14~-/17-17~--\10-10-/12-12~-/14-14~~~-----------------------------|
G|------------------------------------------------------------------------|
D|------------------------------------------------------------------------|
A|------------------------------------------------------------------------|
E|------------------------------------------------------------------------|



VERSE I:

Guitar II
e|------------------------------------------------------------------------|
B|------------------------------------------------------------------------|
G|------6----6---------9----9------------14------14----------4----4-------|x2
D|--444---44---4---777---77---7---121212----1212---------222---22---2-----|
A|------------------------------------------------------------------------|
E|------------------------------------------------------------------------|
    ***   **   *   ***   **   *   * * *     * *          ***   **   *
                                  (^^these are tens not ones)

Guitar I (enters at 2nd part of Guitar II)
e|------------------------------------------------------------------------|
B|---7-/14~-14-/17~-17-\10~-10-/12~-12------------------------------------|
G|------------------------------------------------------------------------|
D|------------------------------------------------------------------------|
A|------------------------------------------------------------------------|
E|------------------------------------------------------------------------|



PRE-CHORUS:

Guitar I (Not 100% sure about this part)
e|--12~~~-------------------------12~~~--------------------------------------|
B|--10~~~-------------------------10~~~--------------------------------------|
G|--11~~~-------------------------11~~~--------------------------------------|
D|-(11)~~~-----------------------(11)~~--------------------------------------|
A|---------------------------------------------------------------------------|
E|---------------------------------------------------------------------------|

Guitar II: Silent



CHORUS:

  Guitar II
e|------------------------------------------------------------------------------|
B|------------------------------------------------------------------------------|
G|------------------------------------------------------------------------------|
D|--0000000000000000--7777777777777777--2222222222222222--77777777--22222222----|
A|--0000000000000000--7777777777777777--2222222222222222--77777777--22222222----|
E|--0000000000000000--7777777777777777--2222222222222222--77777777--22222222----|
 |Guitar I                                                                      |
e|---------12---------------------------------12--------------------------------|
B|--5\-10~----14--9br----------------------------14--9br------------------------|
G|-------------------9~--66666666-999999999~-------------9~--66666666-99999999~-|
D|------------------------------------------------------------------------------|
A|------------------------------------------------------------------------------|
E|------------------------------------------------------------------------------|

  Guitar II
e|------------------------------------------------------------------------------|
B|------------------------------------------------------------------------------|
G|------------------------------------------------------------------------------|
D|--0000000000000000--7777777777777777--2222222222222222--77777777--22222222----|
A|--0000000000000000--7777777777777777--2222222222222222--77777777--22222222----|
E|--0000000000000000--7777777777777777--2222222222222222--77777777--22222222----|
 |Guitar I                                                                      |
e|----12---------------------------------12-------------------------------------|
B|------14--9br----------------------------14--9br------------------------------|
G|--------------9~--66666666-999999999~-------------9~--66666666-99999999~------|
D|------------------------------------------------------------------------------|
A|------------------------------------------------------------------------------|
E|------------------------------------------------------------------------------|

End with Guitar I:
e|-------12~~~-----|
B|-------10~~~-----|
G|-------11~~~-----|
D|------(11)~~~----|
A|-----------------|
E|-----------------|

VERSE II:

Guitar II - Same as VERSE I

Guitar I
e|--12------------12---------12----------10-9----------------|
B|-----12-12-10~-----12-10~-----12-10-10---------------------|
G|-----------------------------------------------------------|
D|-----------------------------------------------------------|
A|-----------------------------------------------------------|
E|-----------------------------------------------------------|

PRE-CHORUS - Same

CHORUS - Same

BRIDGE:
 
  Guitar II
e|-------------------------------------------------------------------------------|
B|-------------------------------------------------------------------------------|
G|-------------------------------------------------------------------------------|
D|--44444444-----33333333-----22222222-----11111111------------------------------|
A|--44444444-----44444444-----22222222-----22222222------------------------------|
E|--44444444-----33333333-----22222222-----11111111------------------------------|
 |  ********     ********     ********     ***                                   |x2
 |Guitar I                                                                       |
e|-------------------------------------------------------------------------------|
B|--77777777-----99999999-----1010101010101010-----1212b12b12b12b12b12b12b-------|
G|-------------------------------------------------------------------------------|
D|-------------------------------------------------------------------------------|
A|-------------------------------------------------------------------------------|
E|-------------------------------------------------------------------------------|

CHORUS - SAME

REPEAT BRIDGE 2x THEN:

  Guitar II
e|-------------------------------------------------------------------------------|
B|-------------------------------------------------------------------------------|
G|-------------------------------------------------------------------------------|
D|--44444444-----33333333-----22222222-----11111111------------------------------|
A|--44444444-----44444444-----22222222-----22222222------------------------------|
E|--44444444-----33333333-----22222222-----11111111------------------------------|
 |Guitar I                                                                       |
e|-------------------------------------------------------------------------------|
B|--1717171717171717--1919191919191919--1717171717171717--1414141414141414-------|
G|-------------------------------------------------------------------------------|
D|-------------------------------------------------------------------------------|
A|-------------------------------------------------------------------------------|
E|-------------------------------------------------------------------------------|

END:

  Guitar II
e|---------|
B|---------|
G|---------|
D|----0~~~-|
A|----0~~~-|
E|----0~~~-|
 |Guitar I |
e|----14~~~|
B|----14~~~|
G|----14~~~|
D|---------|
A|---------|
E|---------|

Tabbed entirely with an acoustic so corrections are appreciated :)
Tap to rate this tab
 
# A B C D E F G H I J K L M N O P Q R S T U V W X Y Z