Guitaretab - guitar tabs
Song name
# A B C D E F G H I J K L M N O P Q R S T U V W X Y Z

Flyleaf - Im So Sick tab

Title: Im So Sick
Artist: Flyleaf

Tuning: Drop D - DADGBE

Key: 	/ = slide up
	x = muted note
        PM = palm mute

I include the bass parts of the song where there's no regular guitar, so that you can 
those parts and keep the song going. The bass parts are just those that use single notes 
palm mutes in teh verse, u'll recognize them.


Intro
e|----------------------------------------------------|
B|----------------------------------------------------|
G|---------------------------------------11-11-11-----|
D|--3----0--3--0--3--4--3--0--4/6--6--6---x--x--x-----| x2
A|--3----0--3--0--3--4--3--0--4/6--6--6---9--9--9-----|
D|--3----0--3--0--3--4--3-0--4/6--6--6---------------|
  |---------------------PM----------------------------|

e|-------------------------------------------------|
B|-------------------------------------------------|
G|-------------------------------------------------|
D|--3----0--3--0--3--4--3--0--4/6--6--6--4-4-4-----| x2
A|--3----0--3--0--3--4--3--0--4/6--6--6--4-4-4-----|
D|--3----0--3--0--3--4--3-0--4/6--6--6--4-4-4-----|
  |--------------------PM--------------------------|

e|---------------------------------------------------|
B|---------------------------------------------------|
G|---------------------------------------11-11-11----|
D|--3----0--3--0--3--4--3--0--4/6--6--6---x--x--x----|
A|--3----0--3--0--3--4--3--0--4/6--6--6---9--9--9----|
D|--3----0--3--0--3--4--3-0--4/6--6--6--------------|
  |---------------------PM---------------------------|

e|----------------------------------------------|
B|----------------------------------------------|
G|----------------------------------------------|
D|--3----0--3--0--3--4--3--0--4/6--6--6--4-4----|
A|--3----0--3--0--3--4--3--0--4/6--6--6--4-4----|
D|--3----0--3--0--3--4--3-0--4/6--6--6--4-4----|
  |-------------------PM------------------------|

e|-------------------------------------------------|
B|-------------------------------------------------|
G|---------------------------------------11-11-11--|
D|--3----0--3--0--3--4--3--0--4/6--6--6---x--x--x--| x4
A|--3----0--3--0--3--4--3--0--4/6--6--6---9--9--9--|
D|--3----0--3--0--3--4--3-0--4/6--6--6------------|


Pre-Chorus x2
e|-------------------------------------------------------------------|
B|-------------------------------------------------------------------|
G|-------------------------------------------------------------------|
D|--8-8-8-8-8-8-8-8-8-8-8-8-8-8-8-8-5-5-5-5-5-5-5-5-5-5-5-5-5-5-5-5--|
A|--8-8-8-8-8-8-8-8-8-8-8-8-8-8-8-8-5-5-5-5-5-5-5-5-5-5-5-5-5-5-5-5--|
D|--8-8-8-8-8-8-8-8-8-8-8-8-8-8-8-8-5-5-5-5-5-5-5-5-5-5-5-5-5-5-5-5--|


Chorus x2
e|-------------------------------------------------|
B|-------------------------------------------------|
G|---------------------------------------11-11-11--|
D|--3----0--3--0--3--4--3--0--4/6--6--6---x--x--x--|
A|--3----0--3--0--3--4--3--0--4/6--6--6---9--9--9--|
D|--3----0--3--0--3--4--3-0--4/6--6--6------------|


Verse x8
e|-------------------------------|
B|-------------------------------|
G|-------------------------------|
D|-------------------------------|
A|-------------------------------|
D|--3---0-0----0--6-6---6-44----|
  |------------PM----------------|

[ Tab from: http://www.guitaretab.com/f/flyleaf/69600.html ]
Pre-Chorus x2
e|-------------------------------------------------------------------|
B|-------------------------------------------------------------------|
G|-------------------------------------------------------------------|
D|--8-8-8-8-8-8-8-8-8-8-8-8-8-8-8-8-5-5-5-5-5-5-5-5-5-5-5-5-5-5-5-5--|
A|--8-8-8-8-8-8-8-8-8-8-8-8-8-8-8-8-5-5-5-5-5-5-5-5-5-5-5-5-5-5-5-5--|
D|--8-8-8-8-8-8-8-8-8-8-8-8-8-8-8-8-5-5-5-5-5-5-5-5-5-5-5-5-5-5-5-5--|


Chorus x2
e|-------------------------------------------------|
B|-------------------------------------------------|
G|---------------------------------------11-11-11--|
D|--3----0--3--0--3--4--3--0--4/6--6--6---x--x--x--|
A|--3----0--3--0--3--4--3--0--4/6--6--6---9--9--9--|
D|--3----0--3--0--3--4--3-0--4/6--6--6------------|


Verse x8
e|-------------------------------|
B|-------------------------------|
G|-------------------------------|
D|-------------------------------|
A|-------------------------------|
D|--3---0-0----0--6-6---6-44----|
  |------------PM----------------|


Bridge
e|-------------------------------------------------------------------|
B|-------------------------------------------------------------------|
G|-------------------------------------------------------------------|
D|--8-8-8-8-8-8-8-8-8-8-8-8-8-8-8-8-5-5-5-5-5-5-5-5-5-5-5-5-5-5-5-5--|
A|--8-8-8-8-8-8-8-8-8-8-8-8-8-8-8-8-5-5-5-5-5-5-5-5-5-5-5-5-5-5-5-5--|
D|--8-8-8-8-8-8-8-8-8-8-8-8-8-8-8-8-5-5-5-5-5-5-5-5-5-5-5-5-5-5-5-5--|

e|-----------------------------------------------------------------------|
B|-----------------------------------------------------------------------|
G|----------------------------------------------------------11-11-11-11--|
D|--8-8-8-8-8-8-8-8-8-8-8-8-8-8-8-8-5-5-5-5-5-5-5-5-5-5-5-5--x--x--x--x--|
A|--8-8-8-8-8-8-8-8-8-8-8-8-8-8-8-8-5-5-5-5-5-5-5-5-5-5-5-5--9--9--9--9--|
D|--8-8-8-8-8-8-8-8-8-8-8-8-8-8-8-8-5-5-5-5-5-5-5-5-5-5-5-5--------------|


Pre-Chorus x2
e|-------------------------------------------------------------------|
B|-------------------------------------------------------------------|
G|-------------------------------------------------------------------|
D|--8-8-8-8-8-8-8-8-8-8-8-8-8-8-8-8-5-5-5-5-5-5-5-5-5-5-5-5-5-5-5-5--|
A|--8-8-8-8-8-8-8-8-8-8-8-8-8-8-8-8-5-5-5-5-5-5-5-5-5-5-5-5-5-5-5-5--|
D|--8-8-8-8-8-8-8-8-8-8-8-8-8-8-8-8-5-5-5-5-5-5-5-5-5-5-5-5-5-5-5-5--|


Chorus x2
e|-------------------------------------------------|
B|-------------------------------------------------|
G|---------------------------------------11-11-11--|
D|--3----0--3--0--3--4--3--0--4/6--6--6---x--x--x--|
A|--3----0--3--0--3--4--3--0--4/6--6--6---9--9--9--|
D|--3----0--3--0--3--4--3-0--4/6--6--6------------|


Pre-Chorus x2
e|-------------------------------------------------------------------|
B|-------------------------------------------------------------------|
G|-------------------------------------------------------------------|
D|--8-8-8-8-8-8-8-8-8-8-8-8-8-8-8-8-5-5-5-5-5-5-5-5-5-5-5-5-5-5-5-5--|
A|--8-8-8-8-8-8-8-8-8-8-8-8-8-8-8-8-5-5-5-5-5-5-5-5-5-5-5-5-5-5-5-5--|
D|--8-8-8-8-8-8-8-8-8-8-8-8-8-8-8-8-5-5-5-5-5-5-5-5-5-5-5-5-5-5-5-5--|


Outro
e|-------------------------------------------------|
B|-------------------------------------------------|
G|---------------------------------------11-11-11--|
D|--3----0--3--0--3--4--3--0--4/6--6--6---x--x--x--| x3
A|--3----0--3--0--3--4--3--0--4/6--6--6---9--9--9--|
D|--3----0--3--0--3--4--3-0--4/6--6--6------------|

e|----------------------------------------------------|
B|----------------------------------------------------|
G|---------------------------------------11-11-11-11--|
D|--3----0--3--0--3--4--3--0--4/6--6--6---x--x--x--x--|
A|--3----0--3--0--3--4--3--0--4/6--6--6---9--9--9--9--|
D|--3----0--3--0--3--4--3-0--4/6--6--6---------------|
Related for Im So Sick tab