Guitaretab - guitar tabs
Song name
# A B C D E F G H I J K L M N O P Q R S T U V W X Y Z

Flyleaf - All Around Me tab

Intro Palm mute- Guitar 1, clean |  Open chords, Distortion used
e--------------------------------|-------------------------------------------|
b--------------------------------|-------------------------------------------|
g--------------------------------|-------------------------------------------|
D-44444444---77777777---00000000-|-44--4-----77--7-----22--2-----00--0-----0-|
A-44444444---77777777---00000000-|-44--4-----77--7-----22--2-----00--0-----0-|
D-44444444---77777777---00000000-|-44--4-----77--7-----22--2-----00--0-----0-|
                         _______/                                      _____/
Intro-Guitar 2, clean   /                                             /
e------0---------0-----|------0--------------------------0-----------|------------|
b--------2-------------|--------2---------2h3p2----------------------|-------2----|
g---2----------2-------|---2---------2---------------2-2-----1h2p1---|-----1----2-|
D-4--------------------|-4---------4----2--------4-----------------4-|-4----------|
A----------------------|---------------------------0-------4---------|------------|
D----------------------|---------------------------------------------|------------|

Verse 1-Guitar 1,palm mute, clean tone- a bluesy tone is louder that this. 
e----------------------------------|                                ------|
b----------------------------------|                                ------|
g----------------------------------|                                ------|
D-44444444----77777777----00000000-|                                -1111-|
A-44444444----77777777----00000000-|                                -1111-|
D-44444444----77777777----00000000-| x2 then add this the third time-1111-| two elevens

Refrain-Guitar 1, palm mute, clean tone- Itís the ďIím AliveĒ part.
e----------------------|
b----------------------|
g----------------------|
D-66666666----77777777-|
A-66666666----77777777-|
D-66666666----77777777-| x2
                       \_  These two parts are both played in the same amount of 
Refrain-Guitar 2         \ time so guitar two will have to play faster.
e-0--4--2--4--0--4--2--4-|
b------------------------|
g------------------------|
D------------------------|
A------------------------|
D------------------------| x3

Chorus, Distortion used
e-------------------------------------------------------------------------|
b-------------------------------------------------------------------------HOLD THIS CHORD
g------------------------------------------------------------------------/|
D-44--4----77--7----00--0----22--2----44--4----77--7----22--2----00--0----0-|
A-44--4----77--7----00--0----22--2----44--4----77--7----22--2----00--0----0-|
D-44--4----77--7----00--0----22--2----44--4----77--7----22--2----00--0----0-|

Verse 2-Guitar 1,palm mute, clean tone. 
e----------------------------------|                                ------|
b----------------------------------|                                ------|
g----------------------------------|                                ------|
D-44444444----77777777----00000000-|                                -1111-|
A-44444444----77777777----00000000-|                                -1111-|
D-44444444----77777777----00000000-| x2 then add this the third time-1111-| two elevens
[ Tab from: http://www.guitaretab.com/f/flyleaf/72212.html ]
Refrain-Guitar 1, palm mute
e----------------------|
b----------------------|
g----------------------|
D-66666666----77777777-|
A-66666666----77777777-|
D-66666666----77777777-| x2
                       \_ 

Refrain-Guitar 2         \
e-0--4--2--4--0--4--2--4-|
b------------------------|
g------------------------|
D------------------------|
A------------------------|
D------------------------| x3

Chorus, Distortion used
e---------------------------------------------------------------------------|
b---------------------------------------------------------------------------HOLD THIS CHORD
g--------------------------------------------------------------------------/|
D-44--4----77--7----00--0----22--2----44--4----77--7----22--2----00--0----0-|
A-44--4----77--7----00--0----22--2----44--4----77--7----22--2----00--0----0-|
D-44--4----77--7----00--0----22--2----44--4----77--7----22--2----00--0----0-|

Verse 3-Guitar 1,palm mute, clean tone. 
e----------------------------------|                                ------|
b----------------------------------|                                ------|
g----------------------------------|                                ------|
D-44444444----77777777----00000000-|                                -1111-|
A-44444444----77777777----00000000-|                                -1111-|
D-44444444----77777777----00000000-| x2 then add this the third time-1111-| two elevens

Refrain-Guitar 1, palm mute, clean tone
e----------------------|
b----------------------|
g----------------------|
D-66666666----77777777-|
A-66666666----77777777-|
D-66666666----77777777-| x2
                       \_ 
Refrain-Guitar 2         \
e-0--4--2--4--0--4--2--4-|
b------------------------|
g------------------------|
D------------------------|
A------------------------|
D------------------------| x3

Chorus, Distortion used
e--------------------------------------------------------------------|
b--------------------------------------------------------------------|
g--------------------------------------------------------------------|
D-44--4----77--7----00--0----22--2----44--4----77--7----22--2----00--|
A-44--4----77--7----00--0----22--2----44--4----77--7----22--2----00--|
D-44--4----77--7----00--0----22--2----44--4----77--7----22--2----00--|

Bridge, the fast paced riff
e-----------------------|
b-----------------------|
g-----------------------|
D-44--------------44----|
A-44--------------44----|
D-44--------------44----|
Take my hand I give it to you

e----------------------|
b----------------------|
g----------------------|
D-7-----------777------|
A-7-----------777------|
D-7-----------777------|
Now you owe me all I am

e--------------------------------|
b--------------------------------|
g--------------------------------|
D-0-00----------------22---------|
A-0-00----------------22---------|
D-0-00----------------22---------|
You said you would never leave me

e----------------------|
b----------------------|
g----------------------|
D--------------------11|
A--------------------11|
D--------------------11|
I believe you I believe

Chorus, Distortion used
e---------------------------------------------------------------------------|
b---------------------------------------------------------------------------|
g--------------------------------------------------------------------------/|
D-44--4----77--7----00--0----22--2----44--4----77--7----22--2----00--0----0-|
A-44--4----77--7----00--0----22--2----44--4----77--7----22--2----00--0----0-|
D-44--4----77--7----00--0----22--2----44--4----77--7----22--2----00--0----0-|
HOLD THIS CHORD TILL IT STOPS

Thatís about it.
Related for All Around Me tab