Guitaretab - guitar tabs
Song name
# A B C D E F G H I J K L M N O P Q R S T U V W X Y Z

Flyleaf - Much Like Falling tab

i couldn't find tabs for this song...so i tried to make some, i think they're right...if 
aren't...they are close i think
Much Like Falling - Flyleaf

[bass plays intro]

Verse:
|-------------------------|   |---------------------------------------------|
|-------------------------|   |---------------------------------------------|
|--------4-0--------------|   |--------4-0------------------------------4-0-|
|-----0------2-2-x--0-0-x-|x2 |-----0------2-2-x-4-4h5r4-0-0-x-------0------|
|-0-2--2-----2-2-x--0-0-x-|   |-0-2--2-----2-2-x---------0-0-x---0-2---2----|
|------------2-2-x--0-0-x-|   |------------2-2-x---------0-0-x--------------|
[when I said good morning...]
[ Tab from: http://www.guitaretab.com/f/flyleaf/89318.html ]
Chorus Intro: x1         Chorus: x2
|-------------------|   |-4---9------------10----------------------------------|
|-------------------|   |-7---12--------------10-10-10--10-10-10--10-10-10-10b-|
|-------------------|   |-6---11---------------------------------9--9--9-------|
|-2-x-2-2-2-2-2-2-0-|   |-4-0-9--0---0-----------------------------------------|
|-2-x-2-2-2-2-2-2-0-|   |-4-0-9--0---0-x5--------------------------------------|
|-2-x-2-2-2-2-2-2-0-|   |-4-0-9--0---0-----------------------------------------|
     ......              [it feels so much like falling...]
[so I keep waking up]

|-5---------------------4-----2-----------------------------------|
|-8---------------------7-----5--------------------7--------7-----|
|-7---------------------6-----4-------------------7--7-----7--7---|
|-5-x8---5-6-5---7777---4--0--2-x?--5h6--7-77---7-------7---------|
|-5------------7--------4--0--2--------7--------------------------|
|-5---------------------4--0--2-----------------------------------|
 [I donít wanna be here...]


|-9-----10----7----5----12----|  |-5------|  |-9-------2--2-2-2222-|
|-12----13----10---8----15----|  |-8------|  |-12------5--5-5-5555-|
|-11----12----9----7----14----|x2|-7------|  |-11------4--4-4-4444-|x2
|-9--x3-10-x3-7-x3-5-x3-12-x3-|  |-5--x16-|  |-9---0---2--2-2-2222-|
|-9-----10----7----5----12----|  |-5------|  |-9---0---2--2-2-2222-|
|-9-----10----7----5----12----|  |-5------|  |-9---0---2--2-2-2222-|
 ...light muting.............                                ....
[thereís still so much to know...]           [you grip my wrists, I let go]


Chorus: x4

End:
|-9---------2~~~-|
|-12--------5~~~-|
|-11--------4~~~-|
|-9~---0~---2~~~-|
|-9~---0~---2~~~-|
|-9~---0~---2~~~-|
[far away from here]
Related for Much Like Falling tab