Song name
# A B C D E F G H I J K L M N O P Q R S T U V W X Y Z

Fm Radio - Be My Only chords

Highlighted       Show chord diagrams
-------------------------------------------------------------------------------
			     Be My Only – FM Radio
-------------------------------------------------------------------------------
Tabbed by: Ben Ng
Email: benjamin.j.ng@gmail.com

Tuning: Standard (Capo on 8th Fret)

(This is my first tab, not sure if its totally accurate, but it works for me! 
Please let me know if you have any corrections)


e |------3-------3-------3-------3-------|
B |------3-------3-------3-------3-------|
G |------0-------2-------0-------0-------|
D |------0-------0-------2-------2-------|
A |------2-------0-------2-------3-------|
E |------3-------2-------0-------x-------|

        G/D     D/F#    Em       C




G/D		        D/F#	         Em		     D/F#		
i can tell by the way you look at me you need to be mine 
we could sit watch the stars all night till they disappear into the sky 

G/D	     D/F#      Em			    C
i am yours and i know that youre mine 

  Em				  C
youre worth waiting for youre worth waiting for 

CHORUS

G/D	      D/F#	  Em                     C
be my only be my only be my only 
your hand in mine i swear love speeds up time 
and wind blows southern skies like a lullaby 
wasnt hard to fall your loves a wrecking ball 



watch your hands move along my face they trace all the lines ive lived 
it isnt hard to love your scars cause thats everywhere you’ve been 

i am yours and i know that youre mine 
youre worth waiting for youre worth waiting for 

(Chorus)

youre the one ill compare all the others to like sunny weather 
youre the one that ill always come back to forever 

be my only be my only be my only 
your hand in mine i swear love speeds up time 
and wind blows southern skies like a lullaby 
the good the bad i take it all your loves a wrecking ball


myspace.com/fmradioproject
Tap to rate this tab
# A B C D E F G H I J K L M N O P Q R S T U V W X Y Z