Song name
# A B C D E F G H I J K L M N O P Q R S T U V W X Y Z

Fm Radio - Be My Only tab

Tabber: Emme
Email: livealchemy.alchemy@gmail.com

I'm not sure if all the chord shapes have names. I figured some of them out by 
ear, but it sounds right when I play it and matches with the mp3. Happy Strumming!

Capo on 8th Fret/Standard Tuning

Intro	   
	        G/D	           D/F#	    Em	  Cadd9		(2x)
e |------3-------3-------3-------0-------|
B |------3-------3-------3-------3-------|
G |------0-------2-------0-------0-------|
D |------0-------0-------2-------2-------|
A |------2-------0-------2-------3-------|
E |------3-------2-------0-------0-------|

	        G/D	          D/F#	       Em	    Cadd9            Em	  Cadd9	
e |------3-------3-------3-------3-------3-------3-------| 
B |------3-------3-------3-------3-------3-------3-------|
G |------0-------2-------0-------0-------0-------0-------|
D |------0-------0-------2-------2-------2-------2-------|
A |------2-------0-------2-------3-------2-------3-------|
E |------3-------2-------0-------0-------0-------0-------|

Verses - 2x
e |------3-------3-------3-------3-------3-------3-------3-------|
B |------3-------3-------3-------3-------3-------3-------3-------|
G |------0-------0-------2-------0-------0-------0-------2-------|
D |------2-------0-------0-------0-------2-------0-------0-------|
A |------3-------2-------0-------2-------3-------2-------0-------|
E |------0-------0-------2-------0-------0-------0-------2-------|

Prechorus (I'm yours...)
e |------3-------3-------3-------3-------3-------|
B |------3-------3-------3-------3-------3-------|
G |------0-------2-------0-------2-------0-------|
D |------2-------0-------0-------0-------0-------|
A |------3-------0-------2-------0-------2-------|
E |------0-------2-------0-------2-------3-------|

(you're worth waiting for...)
e |------0-------3-------|
B |------3-------3-------|
G |------0-------0-------|
D |------2-------0-------|
A |------0-------3-------|
E |------0-------0-------|

Chorus
	   G/D	D/F#	    Em	  Cadd9		(3x)
e |------3-------3-------3-------0-------|
B |------3-------3-------3-------3-------|
G |------0-------2-------0-------0-------|
D |------0-------0-------2-------2-------|
A |------2-------0-------2-------3-------|
E |------3-------2-------0-------0-------|

(you're tearing down my walls -or- the good the bad i'd take it all)
e |------3-------3-------0-------|
B |------3-------3-------3-------|
G |------0-------2-------0-------|
D |------0-------0-------2-------|
A |------2-------0-------0-------|
E |------0-------2-------0-------|

(you're love's wrecking ball)
e |------3-------3-------|
B |------3-------3-------|
G |------0-------0-------|
D |------2-------0-------|
A |------3-------2-------|
E |------0-------3-------|
Tap to rate this tab
 
# A B C D E F G H I J K L M N O P Q R S T U V W X Y Z