Song name
# A B C D E F G H I J K L M N O P Q R S T U V W X Y Z

Fm Static - Six Candles tab

Hi!! this is my first tab :) i hope it's correct!! byeee
SIX CANDLES
INTRO
|1st guitar
e---------------------------------------------------------------|
B-----5-------5-------5-------5-------5-------5-------7-8-7---5-|
G---7---7---7---7---7---7---7-------7---7---7---7---7-------7---|
D-----------------5-------5-----------------------5-------------|
A-5-------5-----------------------5-------5---------------------|
E---------------------------------------------------------------|

e---------------------------------------------------------------|
B-----5-------5-------5-------5-------5-------5-------7-8-7---5-|
G---7---7---7---7---7---7---7-------7---7---7---7---7-------7---|
D-----------------5-------5-----------------------5-------------|
A-5-------5-----------------------5-------5---------------------|
E---------------------------------------------------------------|
|
|2nd guitar
e------------------------------|
B--5-7-5--5-7-5--5-7-5-8-7-5---|
G----------------------------7-|
D------------------------------|
A------------------------------|
E------------------------------|

VERSE
|1st guitar
e--------------------------------------------|
B--------------------------------------------|
G--77-x-77-x-99-x-99-x-----------66-x-66-----|
D--77-x-77-x-99-x-99-x-99-x-99-x-66-x-66-----| 4X
A--55-x-55-x-77-x-77-x-99-x-99-x-44-x-44-(7)-|
E----------------------77-x-77-x-------------|
|
|
e--------------------------------|
B-7-5-7--7-5-7--7-5-7--2-3-2-----|
G--------------------------------|
D--------------------------------| 2X
A--------------------------------|
E--------------------------------|

CHORUS
|1stguitar
e-------------------------------------------|
B-------------------------------------------|
G-7-7----------------7-7-------7-7----------|
D-7-7--7-7-9-9-9-5-5-7-7-7-5-5-7-7-5-5-7-7--|
A-5-5--7-7-9-9-9-5-5-5-5-7-5-5-5-5-5-5-7-7--| 2X
E------5-5-7-7-7-3-3-----5-3-3-----3-3-5-5--|
|
|2nd guitar
e---------------------|
B--7-8-7-5------------|
G---------------------|
D---------------------|
A---------------------|
E---------------------|
|
|3rd guitar
e------------------------------|
B--5-7-5--5-7-5--5-7-5-8-7-5---|
G----------------------------7-|
D------------------------------|
A------------------------------|
E------------------------------|

VERSE 2
|1st guitar
e-------------------------------------------------------------|
B-------------------------------------------------------------|
G-------|-------|-77-x-77-x-99-x-99-x-----------66-x-66-------|
D-------|-------|-77-x-77-x-99-x-99-x-99-x-99-x-66-x-66-------| 4X
A-------|-------|-55-x-55-x-77-x-77-x-99-x-99-x-44-x-44-(7)---|
E-------|-------|---------------------77-x-77-x---------------|
|
|
e--------------------------------|
B-7-5-7--7-5-7--7-5-7--2-3-2-----|
G--------------------------------|
D--------------------------------| 2X
A--------------------------------|
E--------------------------------|

CHORUS
|1st guitar
e----------------------------------------------|
B----------------------------------------------|
G-7-7----------------7-7-------7-7-------------|
D-7-7--7-7-9-9-9-5-5-7-7-7-5-5-7-7-5-5-7-7-----|
A-5-5--7-7-9-9-9-5-5-5-5-7-5-5-5-5-5-5-7-7-----| 2X
E------5-5-7-7-7-3-3-----5-3-3-----3-3-5-5-----|
|
|2nd guitar
e----------------------------|
B--10-7-----7-8-7-5--7-8-7-5-|
G----------------------------|
D----------------------------|
A----------------------------|
E----------------------------|
|
|3rd guitar
e------------------------------|
B--5-7-5--5-7-5--5-7-5-8-7-5---|
G----------------------------7-|
D------------------------------|
A------------------------------|
E------------------------------|


VERSE 3
|1st guitar
e--------------------------------------|
B--------------------------------------|
G--9---6-----9---9----9---9----9-------|
D--9-9-6-7---9-9-6-7--9-9-6-7--9-9-4-7-|
A--7-9-4-7---7-9-4-7--7-9-4-7--7-9-4-7-|
E----7---5-----7---5----7---5----7-2-5-|
|
|2nd guitar
e---------------------|
B-10-9-7-5---5-10-9-7-|
G---------------------|
D---------------------|
A---------------------|
E---------------------|

CHORUS
|1st guitar
e----------------------------------------------|
B----------------------------------------------|
G-9-9-------------------9-9-------9-9----------|
D-9-9--9-9-11-11-11-7-7-9-9-9-7-7-9-9-7-7-9-9--|
A-7-7--9-9-11-11-11-7-7-7-7-9-7-7-7-7-7-7-9-9--| 6X
E------7-7--9--9--9-5-5-----7-5-5-----5-5-7-7--|
|
|2nd guitar
e----------------------------------------7-5-4-5-4--|
B--5-7-9-5-7-9-5-7-9-9-10-9-7-9-7-5-(2X)------------|
G---------------------------------------------------|
D---------------------------------------------------|
A---------------------------------------------------| 2X
E---------------------------------------------------|

End with
E---
B---
G---
D---
A---
E-0-

Enjoy!!
Tap to rate this tab
# A B C D E F G H I J K L M N O P Q R S T U V W X Y Z